ISO-10303-21;
HEADER;
FILE_DESCRIPTION (( 'STEP AP203' ),
    '1' );
FILE_NAME ('321334.step',
    '2021-11-26T10:02:44',
    ( '' ),
    ( '' ),
    'SwSTEP 2.0',
    'SolidWorks 2019',
    '' );
FILE_SCHEMA (( 'CONFIG_CONTROL_DESIGN' ));
ENDSEC;

DATA;
#1 = VERTEX_POINT ( 'NONE', #206 ) ;
#2 = FACE_OUTER_BOUND ( 'NONE', #73, .T. ) ;
#3 = AXIS2_PLACEMENT_3D ( 'NONE', #111, #112, #126 ) ;
#4 = APPROVAL_PERSON_ORGANIZATION ( #99, #208, #152 ) ;
#5 = DATE_AND_TIME ( #100, #213 ) ;
#6 = DATE_AND_TIME ( #27, #232 ) ;
#7 = DESIGN_CONTEXT ( 'detailed design', #183, 'design' ) ;
#8 = CARTESIAN_POINT ( 'NONE',  ( 0.0000000000000000000, 0.0000000000000000000, 0.0000000000000000000 ) ) ;
#9 = ADVANCED_FACE ( 'NONE', ( #216, #214 ), #176, .T. ) ;
#10 = ORIENTED_EDGE ( 'NONE', *, *, #139, .T. ) ;
#11 = AXIS2_PLACEMENT_3D ( 'NONE', #182, #220, #35 ) ;
#12 = AXIS2_PLACEMENT_3D ( 'NONE', #161, #235, #69 ) ;
#13 = APPROVAL ( #48, 'UNSPECIFIED' ) ;
#14 = PLANE ( 'NONE',  #90 ) ;
#15 = FACE_OUTER_BOUND ( 'NONE', #217, .T. ) ;
#16 = AXIS2_PLACEMENT_3D ( 'NONE', #238, #123, #37 ) ;
#17 = CC_DESIGN_APPROVAL ( #208, ( #150 ) ) ;
#18 = DIRECTION ( 'NONE',  ( 0.0000000000000000000, 1.000000000000000000, 0.0000000000000000000 ) ) ;
#19 = DIRECTION ( 'NONE',  ( 0.0000000000000000000, 1.000000000000000000, 0.0000000000000000000 ) ) ;
#20 = EDGE_CURVE ( 'NONE', #95, #95, #128, .T. ) ;
#21 = DIRECTION ( 'NONE',  ( -3.491481338843133355E-15, -4.688838916515657272E-16, -1.000000000000000000 ) ) ;
#22 = VERTEX_POINT ( 'NONE', #169 ) ;
#23 = CLOSED_SHELL ( 'NONE', ( #50, #59, #113, #9, #56 ) ) ;
#24 = DIRECTION ( 'NONE',  ( -1.637099357785587529E-30, 1.000000000000000000, -4.688838916515656286E-16 ) ) ;
#25 = APPROVAL_DATE_TIME ( #85, #67 ) ;
#26 = ORIENTED_EDGE ( 'NONE', *, *, #77, .T. ) ;
#27 = CALENDAR_DATE ( 2021, 26, 11 ) ;
#28 = CC_DESIGN_PERSON_AND_ORGANIZATION_ASSIGNMENT ( #83, #154, ( #110 ) ) ;
#29 = CIRCLE ( 'NONE', #11, 1.923059892324148201 ) ;
#30 = APPROVAL_PERSON_ORGANIZATION ( #134, #13, #191 ) ;
#31 = DATE_TIME_ROLE ( 'creation_date' ) ;
#32 = EDGE_LOOP ( 'NONE', ( #33 ) ) ;
#33 = ORIENTED_EDGE ( 'NONE', *, *, #243, .T. ) ;
#34 = AXIS2_PLACEMENT_3D ( 'NONE', #200, #141, #199 ) ;
#35 = DIRECTION ( 'NONE',  ( -1.637099357785587529E-30, 1.000000000000000000, -4.688838916515657272E-16 ) ) ;
#36 = ORIENTED_EDGE ( 'NONE', *, *, #142, .F. ) ;
#37 = DIRECTION ( 'NONE',  ( 3.153425691349006731E-31, 1.000000000000000000, 9.031770143711729009E-17 ) ) ;
#38 = AXIS2_PLACEMENT_3D ( 'NONE', #114, #190, #115 ) ;
#39 = VERTEX_POINT ( 'NONE', #58 ) ;
#40 = PERSON ( 'UNSPECIFIED', 'UNSPECIFIED', 'UNSPECIFIED', ('UNSPECIFIED'), ('UNSPECIFIED'), ('UNSPECIFIED') ) ;
#41 = FACE_OUTER_BOUND ( 'NONE', #194, .T. ) ;
#42 = FACE_OUTER_BOUND ( 'NONE', #47, .T. ) ;
#43 = DIRECTION ( 'NONE',  ( -3.491481338843133355E-15, 9.031770143711729009E-17, -1.000000000000000000 ) ) ;
#44 = AXIS2_PLACEMENT_3D ( 'NONE', #74, #107, #18 ) ;
#45 = APPROVAL_ROLE ( '' ) ;
#46 = APPLICATION_PROTOCOL_DEFINITION ( 'international standard', 'config_control_design', 1994, #183 ) ;
#47 = EDGE_LOOP ( 'NONE', ( #26 ) ) ;
#48 = APPROVAL_STATUS ( 'not_yet_approved' ) ;
#49 = AXIS2_PLACEMENT_3D ( 'NONE', #223, #204, #240 ) ;
#50 = ADVANCED_FACE ( 'NONE', ( #52 ), #14, .T. ) ;
#51 = CARTESIAN_POINT ( 'NONE',  ( 4.792100944638238383E-14, -1.239621525566485884E-15, 13.72512260433862785 ) ) ;
#52 = FACE_OUTER_BOUND ( 'NONE', #233, .T. ) ;
#53 = PLANE ( 'NONE',  #12 ) ;
#54 = DIRECTION ( 'NONE',  ( -3.491481338843133355E-15, -4.688838916515657272E-16, -1.000000000000000000 ) ) ;
#55 = CYLINDRICAL_SURFACE ( 'NONE', #198, 2.153999999999995030 ) ;
#56 = ADVANCED_FACE ( 'NONE', ( #15 ), #53, .T. ) ;
#57 = PLANE ( 'NONE',  #3 ) ;
#58 = CARTESIAN_POINT ( 'NONE',  ( -6.842277657836020854E-46, 1.923059892324148201, 0.0000000000000000000 ) ) ;
#59 = ADVANCED_FACE ( 'NONE', ( #166, #201 ), #225, .T. ) ;
#60 = DIRECTION ( 'NONE',  ( 0.0000000000000000000, 1.000000000000000000, 0.0000000000000000000 ) ) ;
#61 = COORDINATED_UNIVERSAL_TIME_OFFSET ( 1, 0, .AHEAD. ) ;
#62 = ADVANCED_BREP_SHAPE_REPRESENTATION ( '321334', ( #218, #138, #72 ), #236 ) ;
#63 = PERSON_AND_ORGANIZATION ( #40, #205 ) ;
#64 = DATE_AND_TIME ( #158, #97 ) ;
#65 = CONICAL_SURFACE ( 'NONE', #109, 1.923059892324148201, 0.5235987755982979275 ) ;
#66 = CALENDAR_DATE ( 2021, 26, 11 ) ;
#67 = APPROVAL ( #228, 'UNSPECIFIED' ) ;
#68 = ORIENTED_EDGE ( 'NONE', *, *, #212, .T. ) ;
#69 = DIRECTION ( 'NONE',  ( 3.153425691349006731E-31, 1.000000000000000000, 9.031770143711729009E-17 ) ) ;
#70 = PRODUCT_DEFINITION ( 'UNKNOWN', '', #150, #7 ) ;
#71 = ORIENTED_EDGE ( 'NONE', *, *, #212, .F. ) ;
#72 = AXIS2_PLACEMENT_3D ( 'NONE', #8, #137, #175 ) ;
#73 = EDGE_LOOP ( 'NONE', ( #10 ) ) ;
#74 = CARTESIAN_POINT ( 'NONE',  ( 4.885231259955590439E-14, -1.263712492114123682E-15, 13.99185842870425134 ) ) ;
#75 =( NAMED_UNIT ( * ) PLANE_ANGLE_UNIT ( ) SI_UNIT ( $, .RADIAN. ) );
#76 =( NAMED_UNIT ( * ) SI_UNIT ( $, .STERADIAN. ) SOLID_ANGLE_UNIT ( ) );
#77 = EDGE_CURVE ( 'NONE', #39, #39, #29, .T. ) ;
#78 =( LENGTH_UNIT ( ) NAMED_UNIT ( * ) SI_UNIT ( .MILLI., .METRE. ) );
#79 = CIRCLE ( 'NONE', #49, 2.153999999999991921 ) ;
#80 = APPROVAL_STATUS ( 'not_yet_approved' ) ;
#81 = EDGE_LOOP ( 'NONE', ( #143 ) ) ;
#82 = COORDINATED_UNIVERSAL_TIME_OFFSET ( 1, 0, .AHEAD. ) ;
#83 = PERSON_AND_ORGANIZATION ( #40, #205 ) ;
#84 = CALENDAR_DATE ( 2021, 26, 11 ) ;
#85 = DATE_AND_TIME ( #66, #165 ) ;
#86 = EDGE_LOOP ( 'NONE', ( #36 ) ) ;
#87 = CARTESIAN_POINT ( 'NONE',  ( 2.793185071074506684E-13, -7.225416114969383207E-15, 80.00000000000000000 ) ) ;
#88 = EDGE_LOOP ( 'NONE', ( #153 ) ) ;
#89 = FACE_OUTER_BOUND ( 'NONE', #144, .T. ) ;
#90 = AXIS2_PLACEMENT_3D ( 'NONE', #87, #122, #180 ) ;
#91 = ORIENTED_EDGE ( 'NONE', *, *, #135, .T. ) ;
#92 = FACE_BOUND ( 'NONE', #88, .T. ) ;
#93 = DIRECTION ( 'NONE',  ( 1.637099357785587179E-30, -1.000000000000000000, 4.688838916515657272E-16 ) ) ;
#94 = AXIS2_PLACEMENT_3D ( 'NONE', #224, #130, #60 ) ;
#95 = VERTEX_POINT ( 'NONE', #241 ) ;
#96 = VERTEX_POINT ( 'NONE', #188 ) ;
#97 = LOCAL_TIME ( 11, 2, 44.00000000000000000, #61 ) ;
#98 = ORIENTED_EDGE ( 'NONE', *, *, #243, .F. ) ;
#99 = PERSON_AND_ORGANIZATION ( #40, #205 ) ;
#100 = CALENDAR_DATE ( 2021, 26, 11 ) ;
#101 = APPROVAL_PERSON_ORGANIZATION ( #193, #67, #45 ) ;
#102 = PERSON_AND_ORGANIZATION_ROLE ( 'creator' ) ;
#103 = ORIENTED_EDGE ( 'NONE', *, *, #20, .F. ) ;
#104 = AXIS2_PLACEMENT_3D ( 'NONE', #51, #196, #106 ) ;
#105 = FACE_OUTER_BOUND ( 'NONE', #81, .T. ) ;
#106 = DIRECTION ( 'NONE',  ( 0.0000000000000000000, 1.000000000000000000, 0.0000000000000000000 ) ) ;
#107 = DIRECTION ( 'NONE',  ( -3.491481338843133355E-15, 9.031770143711729009E-17, -1.000000000000000000 ) ) ;
#108 = CC_DESIGN_PERSON_AND_ORGANIZATION_ASSIGNMENT ( #207, #133, ( #179 ) ) ;
#109 = AXIS2_PLACEMENT_3D ( 'NONE', #202, #151, #93 ) ;
#110 = SECURITY_CLASSIFICATION ( '', '', #227 ) ;
#111 = CARTESIAN_POINT ( 'NONE',  ( -1.574120057353541610E-30, 1.923059892324148201, -4.508459030959937497E-16 ) ) ;
#112 = DIRECTION ( 'NONE',  ( -3.491481338843133355E-15, -4.688838916515657272E-16, -1.000000000000000000 ) ) ;
#113 = ADVANCED_FACE ( 'NONE', ( #105, #89 ), #164, .T. ) ;
#114 = CARTESIAN_POINT ( 'NONE',  ( 4.792100944638238383E-14, -1.239621525566485884E-15, 13.72512260433862785 ) ) ;
#115 = DIRECTION ( 'NONE',  ( 0.0000000000000000000, 1.000000000000000000, 0.0000000000000000000 ) ) ;
#116 = DATE_TIME_ROLE ( 'classification_date' ) ;
#117 = APPLICATION_PROTOCOL_DEFINITION ( 'international standard', 'config_control_design', 1994, #156 ) ;
#118 = CIRCLE ( 'NONE', #38, 2.153999999999999471 ) ;
#119 = ORIENTED_EDGE ( 'NONE', *, *, #139, .F. ) ;
#120 = PERSON_AND_ORGANIZATION ( #40, #205 ) ;
#121 = CARTESIAN_POINT ( 'NONE',  ( 1.396592535537256498E-15, 1.875535566606267395E-16, 0.4000000000000009659 ) ) ;
#122 = DIRECTION ( 'NONE',  ( 3.491481338843133355E-15, -9.031770143711729009E-17, 1.000000000000000000 ) ) ;
#123 = DIRECTION ( 'NONE',  ( -3.491481338843133355E-15, 9.031770143711729009E-17, -1.000000000000000000 ) ) ;
#124 = CARTESIAN_POINT ( 'NONE',  ( 2.779219145719134403E-13, -7.189289034394536528E-15, 79.60000000000000853 ) ) ;
#125 = CIRCLE ( 'NONE', #94, 1.599999999999994982 ) ;
#126 = DIRECTION ( 'NONE',  ( -1.637099357785587529E-30, 1.000000000000000000, -4.688838916515657272E-16 ) ) ;
#127 = PRODUCT_RELATED_PRODUCT_CATEGORY ( 'detail', '', ( #179 ) ) ;
#128 = CIRCLE ( 'NONE', #242, 2.153999999999998138 ) ;
#129 = LOCAL_TIME ( 11, 2, 44.00000000000000000, #209 ) ;
#130 = DIRECTION ( 'NONE',  ( -3.491481338843133355E-15, 9.031770143711729009E-17, -1.000000000000000000 ) ) ;
#131 = PERSON_AND_ORGANIZATION_ROLE ( 'design_supplier' ) ;
#132 = CC_DESIGN_DATE_AND_TIME_ASSIGNMENT ( #5, #31, ( #70 ) ) ;
#133 = PERSON_AND_ORGANIZATION_ROLE ( 'design_owner' ) ;
#134 = PERSON_AND_ORGANIZATION ( #40, #205 ) ;
#135 = EDGE_CURVE ( 'NONE', #96, #96, #149, .T. ) ;
#136 = UNCERTAINTY_MEASURE_WITH_UNIT (LENGTH_MEASURE( 1.000000000000000082E-05 ), #78, 'distance_accuracy_value', 'NONE');
#137 = DIRECTION ( 'NONE',  ( 0.0000000000000000000, 0.0000000000000000000, 1.000000000000000000 ) ) ;
#138 = MANIFOLD_SOLID_BREP ( 'Corps-Déplacer/Copier1[2]', #189 ) ;
#139 = EDGE_CURVE ( 'NONE', #222, #222, #79, .T. ) ;
#140 = ORIENTED_EDGE ( 'NONE', *, *, #20, .T. ) ;
#141 = DIRECTION ( 'NONE',  ( -3.491481338843133355E-15, 9.031770143711729009E-17, -1.000000000000000000 ) ) ;
#142 = EDGE_CURVE ( 'NONE', #171, #171, #185, .T. ) ;
#143 = ORIENTED_EDGE ( 'NONE', *, *, #142, .T. ) ;
#144 = EDGE_LOOP ( 'NONE', ( #184 ) ) ;
#145 = PLANE ( 'NONE',  #172 ) ;
#146 = DIRECTION ( 'NONE',  ( 3.491481338843133355E-15, 4.688838916515657272E-16, 1.000000000000000000 ) ) ;
#147 = CARTESIAN_POINT ( 'NONE',  ( 4.792100944638238383E-14, 6.435488900117168895E-15, 13.72512260433862785 ) ) ;
#148 = FACE_OUTER_BOUND ( 'NONE', #162, .T. ) ;
#149 = CIRCLE ( 'NONE', #44, 1.999999999999991784 ) ;
#150 = PRODUCT_DEFINITION_FORMATION_WITH_SPECIFIED_SOURCE ( 'ANY', '', #179, .NOT_KNOWN. ) ;
#151 = DIRECTION ( 'NONE',  ( 3.491481338843133355E-15, 4.688838916515657272E-16, 1.000000000000000000 ) ) ;
#152 = APPROVAL_ROLE ( '' ) ;
#153 = ORIENTED_EDGE ( 'NONE', *, *, #77, .F. ) ;
#154 = PERSON_AND_ORGANIZATION_ROLE ( 'classification_officer' ) ;
#155 = CC_DESIGN_PERSON_AND_ORGANIZATION_ASSIGNMENT ( #63, #131, ( #150 ) ) ;
#156 = APPLICATION_CONTEXT ( 'configuration controlled 3d designs of mechanical parts and assemblies' ) ;
#157 = COORDINATED_UNIVERSAL_TIME_OFFSET ( 1, 0, .AHEAD. ) ;
#158 = CALENDAR_DATE ( 2021, 26, 11 ) ;
#159 = ADVANCED_FACE ( 'NONE', ( #148, #92 ), #65, .T. ) ;
#160 = EDGE_LOOP ( 'NONE', ( #71 ) ) ;
#161 = CARTESIAN_POINT ( 'NONE',  ( 4.792100944638238383E-14, 2.153999999999998582, 13.72512260433862785 ) ) ;
#162 = EDGE_LOOP ( 'NONE', ( #140 ) ) ;
#163 = ADVANCED_FACE ( 'NONE', ( #2, #203 ), #55, .T. ) ;
#164 = CYLINDRICAL_SURFACE ( 'NONE', #16, 1.999999999999993561 ) ;
#165 = LOCAL_TIME ( 11, 2, 44.00000000000000000, #157 ) ;
#166 = FACE_BOUND ( 'NONE', #32, .T. ) ;
#167 = DIRECTION ( 'NONE',  ( 1.637099357785587529E-30, -1.000000000000000000, 4.688838916515657272E-16 ) ) ;
#168 = AXIS2_PLACEMENT_3D ( 'NONE', #124, #43, #19 ) ;
#169 = CARTESIAN_POINT ( 'NONE',  ( 4.792100944638238383E-14, 2.153999999999998582, 13.72512260433862785 ) ) ;
#170 = CARTESIAN_POINT ( 'NONE',  ( 0.0000000000000000000, 0.0000000000000000000, 0.0000000000000000000 ) ) ;
#171 = VERTEX_POINT ( 'NONE', #187 ) ;
#172 = AXIS2_PLACEMENT_3D ( 'NONE', #147, #146, #167 ) ;
#173 = DATE_AND_TIME ( #84, #129 ) ;
#174 = SHAPE_DEFINITION_REPRESENTATION ( #231, #62 ) ;
#175 = DIRECTION ( 'NONE',  ( 1.000000000000000000, 0.0000000000000000000, 0.0000000000000000000 ) ) ;
#176 = CONICAL_SURFACE ( 'NONE', #104, 2.153999999999999471, 0.5235987755982920433 ) ;
#177 = CC_DESIGN_SECURITY_CLASSIFICATION ( #110, ( #150 ) ) ;
#178 = DIRECTION ( 'NONE',  ( -1.609412209794348750E-30, 1.000000000000000000, -4.781764456180270226E-16 ) ) ;
#179 = PRODUCT ( '321334', '321334', '', ( #229 ) ) ;
#180 = DIRECTION ( 'NONE',  ( -3.153425691349006731E-31, -1.000000000000000000, -9.031770143711729009E-17 ) ) ;
#181 = CC_DESIGN_DATE_AND_TIME_ASSIGNMENT ( #64, #116, ( #110 ) ) ;
#182 = CARTESIAN_POINT ( 'NONE',  ( 3.148240114707083221E-30, 4.227887631576284553E-31, 9.016918061919874993E-16 ) ) ;
#183 = APPLICATION_CONTEXT ( 'configuration controlled 3d designs of mechanical parts and assemblies' ) ;
#184 = ORIENTED_EDGE ( 'NONE', *, *, #135, .F. ) ;
#185 = CIRCLE ( 'NONE', #168, 1.999999999999995337 ) ;
#186 = CARTESIAN_POINT ( 'NONE',  ( 4.792100944638238383E-14, 2.153999999999998582, 13.72512260433862785 ) ) ;
#187 = CARTESIAN_POINT ( 'NONE',  ( 2.779219145719134403E-13, 1.999999999999988010, 79.60000000000000853 ) ) ;
#188 = CARTESIAN_POINT ( 'NONE',  ( 4.885231259955590439E-14, 1.999999999999990452, 13.99185842870425134 ) ) ;
#189 = CLOSED_SHELL ( 'NONE', ( #215, #163, #159, #197 ) ) ;
#190 = DIRECTION ( 'NONE',  ( -3.491481338843133355E-15, 9.031770143711729009E-17, -1.000000000000000000 ) ) ;
#191 = APPROVAL_ROLE ( '' ) ;
#192 = CC_DESIGN_APPROVAL ( #13, ( #110 ) ) ;
#193 = PERSON_AND_ORGANIZATION ( #40, #205 ) ;
#194 = EDGE_LOOP ( 'NONE', ( #119 ) ) ;
#195 = PERSON_AND_ORGANIZATION_ROLE ( 'creator' ) ;
#196 = DIRECTION ( 'NONE',  ( -3.491481338843133355E-15, 9.031770143711729009E-17, -1.000000000000000000 ) ) ;
#197 = ADVANCED_FACE ( 'NONE', ( #42 ), #57, .T. ) ;
#198 = AXIS2_PLACEMENT_3D ( 'NONE', #170, #21, #24 ) ;
#199 = DIRECTION ( 'NONE',  ( 0.0000000000000000000, 1.000000000000000000, 0.0000000000000000000 ) ) ;
#200 = CARTESIAN_POINT ( 'NONE',  ( 2.779219145719134403E-13, -7.189289034394536528E-15, 79.60000000000000853 ) ) ;
#201 = FACE_OUTER_BOUND ( 'NONE', #86, .T. ) ;
#202 = CARTESIAN_POINT ( 'NONE',  ( 3.148240114707083221E-30, 4.227887631576284553E-31, 9.016918061919874993E-16 ) ) ;
#203 = FACE_OUTER_BOUND ( 'NONE', #219, .T. ) ;
#204 = DIRECTION ( 'NONE',  ( -3.491481338843133355E-15, -4.688838916515657272E-16, -1.000000000000000000 ) ) ;
#205 = ORGANIZATION ( 'UNSPECIFIED', 'UNSPECIFIED', '' ) ;
#206 = CARTESIAN_POINT ( 'NONE',  ( 2.793185071074506684E-13, 1.599999999999987876, 80.00000000000000000 ) ) ;
#207 = PERSON_AND_ORGANIZATION ( #40, #205 ) ;
#208 = APPROVAL ( #80, 'UNSPECIFIED' ) ;
#209 = COORDINATED_UNIVERSAL_TIME_OFFSET ( 1, 0, .AHEAD. ) ;
#210 = APPROVAL_DATE_TIME ( #6, #13 ) ;
#211 = PERSON_AND_ORGANIZATION ( #40, #205 ) ;
#212 = EDGE_CURVE ( 'NONE', #22, #22, #118, .T. ) ;
#213 = LOCAL_TIME ( 11, 2, 44.00000000000000000, #82 ) ;
#214 = FACE_OUTER_BOUND ( 'NONE', #160, .T. ) ;
#215 = ADVANCED_FACE ( 'NONE', ( #41 ), #145, .T. ) ;
#216 = FACE_BOUND ( 'NONE', #239, .T. ) ;
#217 = EDGE_LOOP ( 'NONE', ( #68 ) ) ;
#218 = MANIFOLD_SOLID_BREP ( 'Corps-Déplacer/Copier1[1]', #23 ) ;
#219 = EDGE_LOOP ( 'NONE', ( #103 ) ) ;
#220 = DIRECTION ( 'NONE',  ( -3.491481338843133355E-15, -4.688838916515657272E-16, -1.000000000000000000 ) ) ;
#221 = CC_DESIGN_PERSON_AND_ORGANIZATION_ASSIGNMENT ( #211, #195, ( #70 ) ) ;
#222 = VERTEX_POINT ( 'NONE', #186 ) ;
#223 = CARTESIAN_POINT ( 'NONE',  ( 4.792100944638239014E-14, 6.435488900117169684E-15, 13.72512260433862963 ) ) ;
#224 = CARTESIAN_POINT ( 'NONE',  ( 2.793185071074506684E-13, -7.225416114969383207E-15, 80.00000000000000000 ) ) ;
#225 = CONICAL_SURFACE ( 'NONE', #34, 1.999999999999995337, 0.7853981633974516097 ) ;
#226 = APPROVAL_DATE_TIME ( #173, #208 ) ;
#227 = SECURITY_CLASSIFICATION_LEVEL ( 'unclassified' ) ;
#228 = APPROVAL_STATUS ( 'not_yet_approved' ) ;
#229 = MECHANICAL_CONTEXT ( 'NONE', #156, 'mechanical' ) ;
#230 = COORDINATED_UNIVERSAL_TIME_OFFSET ( 1, 0, .AHEAD. ) ;
#231 = PRODUCT_DEFINITION_SHAPE ( 'NONE', 'NONE',  #70 ) ;
#232 = LOCAL_TIME ( 11, 2, 44.00000000000000000, #230 ) ;
#233 = EDGE_LOOP ( 'NONE', ( #98 ) ) ;
#234 = CC_DESIGN_PERSON_AND_ORGANIZATION_ASSIGNMENT ( #120, #102, ( #150 ) ) ;
#235 = DIRECTION ( 'NONE',  ( -3.491481338843133355E-15, 9.031770143711729009E-17, -1.000000000000000000 ) ) ;
#236 =( GEOMETRIC_REPRESENTATION_CONTEXT ( 3 ) GLOBAL_UNCERTAINTY_ASSIGNED_CONTEXT ( ( #136 ) ) GLOBAL_UNIT_ASSIGNED_CONTEXT ( ( #78, #75, #76 ) ) REPRESENTATION_CONTEXT ( 'NONE', 'WORKASPACE' ) );
#237 = CC_DESIGN_APPROVAL ( #67, ( #70 ) ) ;
#238 = CARTESIAN_POINT ( 'NONE',  ( 0.0000000000000000000, 0.0000000000000000000, 0.0000000000000000000 ) ) ;
#239 = EDGE_LOOP ( 'NONE', ( #91 ) ) ;
#240 = DIRECTION ( 'NONE',  ( -2.861177261856628485E-30, 1.000000000000000000, -8.053498031461530065E-16 ) ) ;
#241 = CARTESIAN_POINT ( 'NONE',  ( 1.396592535537253145E-15, 2.153999999999998138, 0.3999999999999999112 ) ) ;
#242 = AXIS2_PLACEMENT_3D ( 'NONE', #121, #54, #178 ) ;
#243 = EDGE_CURVE ( 'NONE', #1, #1, #125, .T. ) ;
ENDSEC;
END-ISO-10303-21;
