ISO-10303-21;
HEADER;
FILE_DESCRIPTION (( 'STEP AP203' ),
    '1' );
FILE_NAME ('321333.step',
    '2021-11-26T10:02:43',
    ( '' ),
    ( '' ),
    'SwSTEP 2.0',
    'SolidWorks 2019',
    '' );
FILE_SCHEMA (( 'CONFIG_CONTROL_DESIGN' ));
ENDSEC;

DATA;
#1 = ADVANCED_FACE ( 'NONE', ( #232 ), #115, .T. ) ;
#2 = LOCAL_TIME ( 11, 2, 43.00000000000000000, #82 ) ;
#3 = EDGE_LOOP ( 'NONE', ( #136 ) ) ;
#4 = ADVANCED_FACE ( 'NONE', ( #162 ), #240, .T. ) ;
#5 = EDGE_LOOP ( 'NONE', ( #36 ) ) ;
#6 = CC_DESIGN_PERSON_AND_ORGANIZATION_ASSIGNMENT ( #126, #161, ( #227 ) ) ;
#7 = CARTESIAN_POINT ( 'NONE',  ( 2.779219145719134403E-13, 1.999999999999988010, 79.60000000000000853 ) ) ;
#8 =( NAMED_UNIT ( * ) PLANE_ANGLE_UNIT ( ) SI_UNIT ( $, .RADIAN. ) );
#9 = CC_DESIGN_SECURITY_CLASSIFICATION ( #52, ( #227 ) ) ;
#10 = CARTESIAN_POINT ( 'NONE',  ( 4.795124656174515888E-14, 2.148999999999998245, 13.73378285837647184 ) ) ;
#11 = DIRECTION ( 'NONE',  ( -3.491481338843133355E-15, 9.031770143711729009E-17, -1.000000000000000000 ) ) ;
#12 = DIRECTION ( 'NONE',  ( 0.0000000000000000000, 0.0000000000000000000, 1.000000000000000000 ) ) ;
#13 = DATE_TIME_ROLE ( 'classification_date' ) ;
#14 = CARTESIAN_POINT ( 'NONE',  ( 2.779219145719134403E-13, -7.189289034394536528E-15, 79.60000000000000853 ) ) ;
#15 = CONICAL_SURFACE ( 'NONE', #56, 1.999999999999995337, 0.7853981633974516097 ) ;
#16 = DIRECTION ( 'NONE',  ( -3.491481338843133355E-15, -4.684337750189419426E-16, -1.000000000000000000 ) ) ;
#17 = APPROVAL_DATE_TIME ( #65, #131 ) ;
#18 = DIRECTION ( 'NONE',  ( -1.635527783962478462E-30, 1.000000000000000000, -4.684337750189419426E-16 ) ) ;
#19 = DATE_TIME_ROLE ( 'creation_date' ) ;
#20 = AXIS2_PLACEMENT_3D ( 'NONE', #150, #77, #57 ) ;
#21 = AXIS2_PLACEMENT_3D ( 'NONE', #220, #83, #60 ) ;
#22 = ADVANCED_FACE ( 'NONE', ( #203, #48 ), #34, .T. ) ;
#23 = APPLICATION_CONTEXT ( 'configuration controlled 3d designs of mechanical parts and assemblies' ) ;
#24 = EDGE_LOOP ( 'NONE', ( #236 ) ) ;
#25 = CARTESIAN_POINT ( 'NONE',  ( 4.885231259955590439E-14, -1.263712492114123682E-15, 13.99185842870425134 ) ) ;
#26 = EDGE_LOOP ( 'NONE', ( #40 ) ) ;
#27 = EDGE_LOOP ( 'NONE', ( #53 ) ) ;
#28 = ORIENTED_EDGE ( 'NONE', *, *, #216, .T. ) ;
#29 = VERTEX_POINT ( 'NONE', #198 ) ;
#30 = DIRECTION ( 'NONE',  ( 1.635527783962478462E-30, -1.000000000000000000, 4.684337750189419426E-16 ) ) ;
#31 = CARTESIAN_POINT ( 'NONE',  ( -1.568520122600111881E-30, 1.918059892324147864, -4.492420180369129420E-16 ) ) ;
#32 = DATE_AND_TIME ( #79, #191 ) ;
#33 = CLOSED_SHELL ( 'NONE', ( #133, #114, #22, #98, #193 ) ) ;
#34 = CYLINDRICAL_SURFACE ( 'NONE', #173, 1.999999999999993561 ) ;
#35 = DIRECTION ( 'NONE',  ( 3.491481338843133355E-15, 4.684337750189419426E-16, 1.000000000000000000 ) ) ;
#36 = ORIENTED_EDGE ( 'NONE', *, *, #225, .F. ) ;
#37 = APPLICATION_PROTOCOL_DEFINITION ( 'international standard', 'config_control_design', 1994, #242 ) ;
#38 = DIRECTION ( 'NONE',  ( 1.000000000000000000, 0.0000000000000000000, 0.0000000000000000000 ) ) ;
#39 = PLANE ( 'NONE',  #20 ) ;
#40 = ORIENTED_EDGE ( 'NONE', *, *, #207, .T. ) ;
#41 = VERTEX_POINT ( 'NONE', #7 ) ;
#42 = ORGANIZATION ( 'UNSPECIFIED', 'UNSPECIFIED', '' ) ;
#43 = FACE_OUTER_BOUND ( 'NONE', #213, .T. ) ;
#44 = CARTESIAN_POINT ( 'NONE',  ( 4.795124656174515888E-14, -1.240403699805045378E-15, 13.73378285837647184 ) ) ;
#45 = PRODUCT_DEFINITION ( 'UNKNOWN', '', #227, #112 ) ;
#46 = DIRECTION ( 'NONE',  ( 0.0000000000000000000, 1.000000000000000000, 0.0000000000000000000 ) ) ;
#47 = DATE_AND_TIME ( #50, #71 ) ;
#48 = FACE_OUTER_BOUND ( 'NONE', #154, .T. ) ;
#49 = CIRCLE ( 'NONE', #179, 2.148999999999991584 ) ;
#50 = CALENDAR_DATE ( 2021, 26, 11 ) ;
#51 = AXIS2_PLACEMENT_3D ( 'NONE', #31, #141, #18 ) ;
#52 = SECURITY_CLASSIFICATION ( '', '', #124 ) ;
#53 = ORIENTED_EDGE ( 'NONE', *, *, #216, .F. ) ;
#54 = DIRECTION ( 'NONE',  ( -3.491481338843133355E-15, -4.684337750189419426E-16, -1.000000000000000000 ) ) ;
#55 = ORIENTED_EDGE ( 'NONE', *, *, #207, .F. ) ;
#56 = AXIS2_PLACEMENT_3D ( 'NONE', #14, #144, #122 ) ;
#57 = DIRECTION ( 'NONE',  ( 3.153425691349006731E-31, 1.000000000000000000, 9.031770143711729009E-17 ) ) ;
#58 = DIRECTION ( 'NONE',  ( -1.613156770543056193E-30, 1.000000000000000000, -4.792890013314240794E-16 ) ) ;
#59 = CARTESIAN_POINT ( 'NONE',  ( 1.396592535537253145E-15, 2.148999999999997801, 0.3999999999999999112 ) ) ;
#60 = DIRECTION ( 'NONE',  ( -1.635527783962478462E-30, 1.000000000000000000, -4.684337750189419426E-16 ) ) ;
#61 = DIRECTION ( 'NONE',  ( -3.491481338843133355E-15, 9.031770143711729009E-17, -1.000000000000000000 ) ) ;
#62 = FACE_OUTER_BOUND ( 'NONE', #72, .T. ) ;
#63 = APPROVAL_STATUS ( 'not_yet_approved' ) ;
#64 = DIRECTION ( 'NONE',  ( 3.153425691349006731E-31, 1.000000000000000000, 9.031770143711729009E-17 ) ) ;
#65 = DATE_AND_TIME ( #243, #2 ) ;
#66 = APPROVAL_PERSON_ORGANIZATION ( #205, #131, #145 ) ;
#67 = PRODUCT_DEFINITION_SHAPE ( 'NONE', 'NONE',  #45 ) ;
#68 = CIRCLE ( 'NONE', #192, 1.918059892324147864 ) ;
#69 = ADVANCED_FACE ( 'NONE', ( #81, #142 ), #204, .T. ) ;
#70 = MANIFOLD_SOLID_BREP ( 'Corps-Déplacer/Copier1[1]', #33 ) ;
#71 = LOCAL_TIME ( 11, 2, 43.00000000000000000, #130 ) ;
#72 = EDGE_LOOP ( 'NONE', ( #28 ) ) ;
#73 = DIRECTION ( 'NONE',  ( 0.0000000000000000000, 1.000000000000000000, 0.0000000000000000000 ) ) ;
#74 = ORIENTED_EDGE ( 'NONE', *, *, #119, .F. ) ;
#75 = AXIS2_PLACEMENT_3D ( 'NONE', #185, #11, #139 ) ;
#76 = CALENDAR_DATE ( 2021, 26, 11 ) ;
#77 = DIRECTION ( 'NONE',  ( -3.491481338843133355E-15, 9.031770143711729009E-17, -1.000000000000000000 ) ) ;
#78 = CARTESIAN_POINT ( 'NONE',  ( 4.795124656174515257E-14, 6.433367749639724329E-15, 13.73378285837647006 ) ) ;
#79 = CALENDAR_DATE ( 2021, 26, 11 ) ;
#80 = EDGE_CURVE ( 'NONE', #41, #41, #120, .T. ) ;
#81 = FACE_OUTER_BOUND ( 'NONE', #228, .T. ) ;
#82 = COORDINATED_UNIVERSAL_TIME_OFFSET ( 1, 0, .AHEAD. ) ;
#83 = DIRECTION ( 'NONE',  ( -3.491481338843133355E-15, -4.684337750189419426E-16, -1.000000000000000000 ) ) ;
#84 = PERSON_AND_ORGANIZATION ( #184, #42 ) ;
#85 = CARTESIAN_POINT ( 'NONE',  ( 0.0000000000000000000, 0.0000000000000000000, 0.0000000000000000000 ) ) ;
#86 = PERSON_AND_ORGANIZATION_ROLE ( 'creator' ) ;
#87 = AXIS2_PLACEMENT_3D ( 'NONE', #25, #212, #73 ) ;
#88 = ADVANCED_BREP_SHAPE_REPRESENTATION ( '321333', ( #70, #157, #196 ), #109 ) ;
#89 = EDGE_CURVE ( 'NONE', #155, #155, #49, .T. ) ;
#90 = APPROVAL ( #116, 'UNSPECIFIED' ) ;
#91 = CONICAL_SURFACE ( 'NONE', #156, 2.148999999999999577, 0.5235987755982924874 ) ;
#92 = CARTESIAN_POINT ( 'NONE',  ( 4.795124656174515888E-14, -1.240403699805045378E-15, 13.73378285837647184 ) ) ;
#93 = EDGE_LOOP ( 'NONE', ( #149 ) ) ;
#94 = CC_DESIGN_PERSON_AND_ORGANIZATION_ASSIGNMENT ( #195, #135, ( #107 ) ) ;
#95 = APPLICATION_PROTOCOL_DEFINITION ( 'international standard', 'config_control_design', 1994, #23 ) ;
#96 = CIRCLE ( 'NONE', #132, 2.148999999999997801 ) ;
#97 = EDGE_LOOP ( 'NONE', ( #74 ) ) ;
#98 = ADVANCED_FACE ( 'NONE', ( #105, #188 ), #91, .T. ) ;
#99 = VERTEX_POINT ( 'NONE', #59 ) ;
#100 = DIRECTION ( 'NONE',  ( 3.491481338843133355E-15, 4.684337750189419426E-16, 1.000000000000000000 ) ) ;
#101 = DIRECTION ( 'NONE',  ( 3.491481338843133355E-15, -9.031770143711729009E-17, 1.000000000000000000 ) ) ;
#102 = PERSON_AND_ORGANIZATION ( #184, #42 ) ;
#103 = LOCAL_TIME ( 11, 2, 43.00000000000000000, #168 ) ;
#104 = CARTESIAN_POINT ( 'NONE',  ( 3.137040245200223762E-30, 4.208802688123174527E-31, 8.984840360738258840E-16 ) ) ;
#105 = FACE_BOUND ( 'NONE', #26, .T. ) ;
#106 = CC_DESIGN_APPROVAL ( #131, ( #52 ) ) ;
#107 = PRODUCT ( '321333', '321333', '', ( #111 ) ) ;
#108 = AXIS2_PLACEMENT_3D ( 'NONE', #78, #35, #30 ) ;
#109 =( GEOMETRIC_REPRESENTATION_CONTEXT ( 3 ) GLOBAL_UNCERTAINTY_ASSIGNED_CONTEXT ( ( #208 ) ) GLOBAL_UNIT_ASSIGNED_CONTEXT ( ( #197, #8, #117 ) ) REPRESENTATION_CONTEXT ( 'NONE', 'WORKASPACE' ) );
#110 = ORIENTED_EDGE ( 'NONE', *, *, #89, .T. ) ;
#111 = MECHANICAL_CONTEXT ( 'NONE', #242, 'mechanical' ) ;
#112 = DESIGN_CONTEXT ( 'detailed design', #23, 'design' ) ;
#113 = PERSON_AND_ORGANIZATION ( #184, #42 ) ;
#114 = ADVANCED_FACE ( 'NONE', ( #218, #43 ), #15, .T. ) ;
#115 = PLANE ( 'NONE',  #108 ) ;
#116 = APPROVAL_STATUS ( 'not_yet_approved' ) ;
#117 =( NAMED_UNIT ( * ) SI_UNIT ( $, .STERADIAN. ) SOLID_ANGLE_UNIT ( ) );
#118 = ORIENTED_EDGE ( 'NONE', *, *, #167, .F. ) ;
#119 = EDGE_CURVE ( 'NONE', #153, #153, #226, .T. ) ;
#120 = CIRCLE ( 'NONE', #75, 1.999999999999995337 ) ;
#121 = VERTEX_POINT ( 'NONE', #159 ) ;
#122 = DIRECTION ( 'NONE',  ( 0.0000000000000000000, 1.000000000000000000, 0.0000000000000000000 ) ) ;
#123 = PLANE ( 'NONE',  #206 ) ;
#124 = SECURITY_CLASSIFICATION_LEVEL ( 'unclassified' ) ;
#125 = FACE_BOUND ( 'NONE', #175, .T. ) ;
#126 = PERSON_AND_ORGANIZATION ( #184, #42 ) ;
#127 = APPROVAL_PERSON_ORGANIZATION ( #113, #90, #211 ) ;
#128 = DIRECTION ( 'NONE',  ( -3.153425691349006731E-31, -1.000000000000000000, -9.031770143711729009E-17 ) ) ;
#129 = DATE_AND_TIME ( #146, #103 ) ;
#130 = COORDINATED_UNIVERSAL_TIME_OFFSET ( 1, 0, .AHEAD. ) ;
#131 = APPROVAL ( #201, 'UNSPECIFIED' ) ;
#132 = AXIS2_PLACEMENT_3D ( 'NONE', #214, #54, #58 ) ;
#133 = ADVANCED_FACE ( 'NONE', ( #183 ), #123, .T. ) ;
#134 = EDGE_LOOP ( 'NONE', ( #230 ) ) ;
#135 = PERSON_AND_ORGANIZATION_ROLE ( 'design_owner' ) ;
#136 = ORIENTED_EDGE ( 'NONE', *, *, #167, .T. ) ;
#137 = PERSON_AND_ORGANIZATION ( #184, #42 ) ;
#138 = FACE_OUTER_BOUND ( 'NONE', #24, .T. ) ;
#139 = DIRECTION ( 'NONE',  ( 0.0000000000000000000, 1.000000000000000000, 0.0000000000000000000 ) ) ;
#140 = APPROVAL_PERSON_ORGANIZATION ( #143, #147, #165 ) ;
#141 = DIRECTION ( 'NONE',  ( -3.491481338843133355E-15, -4.684337750189419426E-16, -1.000000000000000000 ) ) ;
#142 = FACE_OUTER_BOUND ( 'NONE', #27, .T. ) ;
#143 = PERSON_AND_ORGANIZATION ( #184, #42 ) ;
#144 = DIRECTION ( 'NONE',  ( -3.491481338843133355E-15, 9.031770143711729009E-17, -1.000000000000000000 ) ) ;
#145 = APPROVAL_ROLE ( '' ) ;
#146 = CALENDAR_DATE ( 2021, 26, 11 ) ;
#147 = APPROVAL ( #63, 'UNSPECIFIED' ) ;
#148 = CONICAL_SURFACE ( 'NONE', #170, 1.918059892324147864, 0.5235987755982979275 ) ;
#149 = ORIENTED_EDGE ( 'NONE', *, *, #80, .T. ) ;
#150 = CARTESIAN_POINT ( 'NONE',  ( 4.795124656174515257E-14, 2.148999999999998245, 13.73378285837647006 ) ) ;
#151 = ADVANCED_FACE ( 'NONE', ( #62, #125 ), #148, .T. ) ;
#152 = ORIENTED_EDGE ( 'NONE', *, *, #80, .F. ) ;
#153 = VERTEX_POINT ( 'NONE', #182 ) ;
#154 = EDGE_LOOP ( 'NONE', ( #55 ) ) ;
#155 = VERTEX_POINT ( 'NONE', #10 ) ;
#156 = AXIS2_PLACEMENT_3D ( 'NONE', #44, #215, #238 ) ;
#157 = MANIFOLD_SOLID_BREP ( 'Corps-Déplacer/Copier1[2]', #169 ) ;
#158 = DATE_AND_TIME ( #76, #186 ) ;
#159 = CARTESIAN_POINT ( 'NONE',  ( 4.795124656174515888E-14, 2.148999999999998245, 13.73378285837647184 ) ) ;
#160 = DIRECTION ( 'NONE',  ( -2.867834258743219651E-30, 1.000000000000000000, -8.072235811897691645E-16 ) ) ;
#161 = PERSON_AND_ORGANIZATION_ROLE ( 'design_supplier' ) ;
#162 = FACE_OUTER_BOUND ( 'NONE', #3, .T. ) ;
#163 = CIRCLE ( 'NONE', #234, 2.148999999999999577 ) ;
#164 = CARTESIAN_POINT ( 'NONE',  ( 4.795124656174516519E-14, 6.433367749639725906E-15, 13.73378285837647361 ) ) ;
#165 = APPROVAL_ROLE ( '' ) ;
#166 = DIRECTION ( 'NONE',  ( -3.491481338843133355E-15, -4.684337750189419426E-16, -1.000000000000000000 ) ) ;
#167 = EDGE_CURVE ( 'NONE', #231, #231, #68, .T. ) ;
#168 = COORDINATED_UNIVERSAL_TIME_OFFSET ( 1, 0, .AHEAD. ) ;
#169 = CLOSED_SHELL ( 'NONE', ( #1, #69, #151, #4 ) ) ;
#170 = AXIS2_PLACEMENT_3D ( 'NONE', #104, #100, #187 ) ;
#171 = PRODUCT_RELATED_PRODUCT_CATEGORY ( 'detail', '', ( #107 ) ) ;
#172 = CC_DESIGN_PERSON_AND_ORGANIZATION_ASSIGNMENT ( #84, #189, ( #52 ) ) ;
#173 = AXIS2_PLACEMENT_3D ( 'NONE', #85, #181, #64 ) ;
#174 = CARTESIAN_POINT ( 'NONE',  ( 0.0000000000000000000, 1.918059892324147864, 0.0000000000000000000 ) ) ;
#175 = EDGE_LOOP ( 'NONE', ( #118 ) ) ;
#176 = DIRECTION ( 'NONE',  ( 0.0000000000000000000, 1.000000000000000000, 0.0000000000000000000 ) ) ;
#177 = ORIENTED_EDGE ( 'NONE', *, *, #119, .T. ) ;
#178 = CC_DESIGN_PERSON_AND_ORGANIZATION_ASSIGNMENT ( #102, #86, ( #227 ) ) ;
#179 = AXIS2_PLACEMENT_3D ( 'NONE', #164, #166, #160 ) ;
#180 = CARTESIAN_POINT ( 'NONE',  ( 0.0000000000000000000, 0.0000000000000000000, 0.0000000000000000000 ) ) ;
#181 = DIRECTION ( 'NONE',  ( -3.491481338843133355E-15, 9.031770143711729009E-17, -1.000000000000000000 ) ) ;
#182 = CARTESIAN_POINT ( 'NONE',  ( 2.793185071074506684E-13, 1.599999999999987876, 80.00000000000000000 ) ) ;
#183 = FACE_OUTER_BOUND ( 'NONE', #97, .T. ) ;
#184 = PERSON ( 'UNSPECIFIED', 'UNSPECIFIED', 'UNSPECIFIED', ('UNSPECIFIED'), ('UNSPECIFIED'), ('UNSPECIFIED') ) ;
#185 = CARTESIAN_POINT ( 'NONE',  ( 2.779219145719134403E-13, -7.189289034394536528E-15, 79.60000000000000853 ) ) ;
#186 = LOCAL_TIME ( 11, 2, 43.00000000000000000, #209 ) ;
#187 = DIRECTION ( 'NONE',  ( 1.635527783962478462E-30, -1.000000000000000000, 4.684337750189419426E-16 ) ) ;
#188 = FACE_OUTER_BOUND ( 'NONE', #5, .T. ) ;
#189 = PERSON_AND_ORGANIZATION_ROLE ( 'classification_officer' ) ;
#190 = PERSON_AND_ORGANIZATION_ROLE ( 'creator' ) ;
#191 = LOCAL_TIME ( 11, 2, 43.00000000000000000, #221 ) ;
#192 = AXIS2_PLACEMENT_3D ( 'NONE', #222, #16, #199 ) ;
#193 = ADVANCED_FACE ( 'NONE', ( #138 ), #39, .T. ) ;
#194 = EDGE_LOOP ( 'NONE', ( #177 ) ) ;
#195 = PERSON_AND_ORGANIZATION ( #184, #42 ) ;
#196 = AXIS2_PLACEMENT_3D ( 'NONE', #180, #12, #38 ) ;
#197 =( LENGTH_UNIT ( ) NAMED_UNIT ( * ) SI_UNIT ( .MILLI., .METRE. ) );
#198 = CARTESIAN_POINT ( 'NONE',  ( 4.885231259955590439E-14, 1.999999999999990452, 13.99185842870425134 ) ) ;
#199 = DIRECTION ( 'NONE',  ( -1.635527783962478462E-30, 1.000000000000000000, -4.684337750189419426E-16 ) ) ;
#200 = CARTESIAN_POINT ( 'NONE',  ( 2.793185071074506684E-13, -7.225416114969383207E-15, 80.00000000000000000 ) ) ;
#201 = APPROVAL_STATUS ( 'not_yet_approved' ) ;
#202 = CARTESIAN_POINT ( 'NONE',  ( 2.793185071074506684E-13, -7.225416114969383207E-15, 80.00000000000000000 ) ) ;
#203 = FACE_OUTER_BOUND ( 'NONE', #93, .T. ) ;
#204 = CYLINDRICAL_SURFACE ( 'NONE', #21, 2.148999999999994692 ) ;
#205 = PERSON_AND_ORGANIZATION ( #184, #42 ) ;
#206 = AXIS2_PLACEMENT_3D ( 'NONE', #202, #101, #128 ) ;
#207 = EDGE_CURVE ( 'NONE', #29, #29, #223, .T. ) ;
#208 = UNCERTAINTY_MEASURE_WITH_UNIT (LENGTH_MEASURE( 1.000000000000000082E-05 ), #197, 'distance_accuracy_value', 'NONE');
#209 = COORDINATED_UNIVERSAL_TIME_OFFSET ( 1, 0, .AHEAD. ) ;
#210 = CC_DESIGN_APPROVAL ( #90, ( #45 ) ) ;
#211 = APPROVAL_ROLE ( '' ) ;
#212 = DIRECTION ( 'NONE',  ( -3.491481338843133355E-15, 9.031770143711729009E-17, -1.000000000000000000 ) ) ;
#213 = EDGE_LOOP ( 'NONE', ( #152 ) ) ;
#214 = CARTESIAN_POINT ( 'NONE',  ( 1.396592535537256498E-15, 1.873735100075772158E-16, 0.4000000000000009659 ) ) ;
#215 = DIRECTION ( 'NONE',  ( -3.491481338843133355E-15, 9.031770143711729009E-17, -1.000000000000000000 ) ) ;
#216 = EDGE_CURVE ( 'NONE', #99, #99, #96, .T. ) ;
#217 = CC_DESIGN_APPROVAL ( #147, ( #227 ) ) ;
#218 = FACE_BOUND ( 'NONE', #194, .T. ) ;
#219 = SHAPE_DEFINITION_REPRESENTATION ( #67, #88 ) ;
#220 = CARTESIAN_POINT ( 'NONE',  ( 0.0000000000000000000, 0.0000000000000000000, 0.0000000000000000000 ) ) ;
#221 = COORDINATED_UNIVERSAL_TIME_OFFSET ( 1, 0, .AHEAD. ) ;
#222 = CARTESIAN_POINT ( 'NONE',  ( 3.137040245200223762E-30, 4.208802688123174527E-31, 8.984840360738258840E-16 ) ) ;
#223 = CIRCLE ( 'NONE', #87, 1.999999999999991784 ) ;
#224 = CC_DESIGN_DATE_AND_TIME_ASSIGNMENT ( #32, #19, ( #45 ) ) ;
#225 = EDGE_CURVE ( 'NONE', #121, #121, #163, .T. ) ;
#226 = CIRCLE ( 'NONE', #237, 1.599999999999994982 ) ;
#227 = PRODUCT_DEFINITION_FORMATION_WITH_SPECIFIED_SOURCE ( 'ANY', '', #107, .NOT_KNOWN. ) ;
#228 = EDGE_LOOP ( 'NONE', ( #110 ) ) ;
#229 = DIRECTION ( 'NONE',  ( -3.491481338843133355E-15, 9.031770143711729009E-17, -1.000000000000000000 ) ) ;
#230 = ORIENTED_EDGE ( 'NONE', *, *, #89, .F. ) ;
#231 = VERTEX_POINT ( 'NONE', #174 ) ;
#232 = FACE_OUTER_BOUND ( 'NONE', #134, .T. ) ;
#233 = CC_DESIGN_DATE_AND_TIME_ASSIGNMENT ( #129, #13, ( #52 ) ) ;
#234 = AXIS2_PLACEMENT_3D ( 'NONE', #92, #229, #176 ) ;
#235 = APPROVAL_DATE_TIME ( #158, #90 ) ;
#236 = ORIENTED_EDGE ( 'NONE', *, *, #225, .T. ) ;
#237 = AXIS2_PLACEMENT_3D ( 'NONE', #200, #61, #46 ) ;
#238 = DIRECTION ( 'NONE',  ( 0.0000000000000000000, 1.000000000000000000, 0.0000000000000000000 ) ) ;
#239 = APPROVAL_DATE_TIME ( #47, #147 ) ;
#240 = PLANE ( 'NONE',  #51 ) ;
#241 = CC_DESIGN_PERSON_AND_ORGANIZATION_ASSIGNMENT ( #137, #190, ( #45 ) ) ;
#242 = APPLICATION_CONTEXT ( 'configuration controlled 3d designs of mechanical parts and assemblies' ) ;
#243 = CALENDAR_DATE ( 2021, 26, 11 ) ;
ENDSEC;
END-ISO-10303-21;
