ISO-10303-21;
HEADER;
FILE_DESCRIPTION (( 'STEP AP203' ),
    '1' );
FILE_NAME ('321332.step',
    '2021-11-26T10:02:43',
    ( '' ),
    ( '' ),
    'SwSTEP 2.0',
    'SolidWorks 2019',
    '' );
FILE_SCHEMA (( 'CONFIG_CONTROL_DESIGN' ));
ENDSEC;

DATA;
#1 = EDGE_LOOP ( 'NONE', ( #2 ) ) ;
#2 = ORIENTED_EDGE ( 'NONE', *, *, #199, .F. ) ;
#3 = DIRECTION ( 'NONE',  ( -3.491481338843133355E-15, 9.031770143711729009E-17, -1.000000000000000000 ) ) ;
#4 = CC_DESIGN_PERSON_AND_ORGANIZATION_ASSIGNMENT ( #39, #105, ( #78 ) ) ;
#5 = FACE_OUTER_BOUND ( 'NONE', #128, .T. ) ;
#6 = ORIENTED_EDGE ( 'NONE', *, *, #117, .T. ) ;
#7 = DIRECTION ( 'NONE',  ( 3.491481338843133355E-15, 4.679842256980173521E-16, 1.000000000000000000 ) ) ;
#8 = DIRECTION ( 'NONE',  ( 3.491481338843133355E-15, -9.031770143711729009E-17, 1.000000000000000000 ) ) ;
#9 = VERTEX_POINT ( 'NONE', #220 ) ;
#10 = AXIS2_PLACEMENT_3D ( 'NONE', #114, #94, #195 ) ;
#11 = PLANE ( 'NONE',  #51 ) ;
#12 = VERTEX_POINT ( 'NONE', #50 ) ;
#13 = CALENDAR_DATE ( 2021, 26, 11 ) ;
#14 = APPROVAL_PERSON_ORGANIZATION ( #200, #213, #184 ) ;
#15 = SECURITY_CLASSIFICATION_LEVEL ( 'unclassified' ) ;
#16 = APPLICATION_CONTEXT ( 'configuration controlled 3d designs of mechanical parts and assemblies' ) ;
#17 = ADVANCED_FACE ( 'NONE', ( #198 ), #11, .T. ) ;
#18 = PERSON_AND_ORGANIZATION ( #178, #25 ) ;
#19 = PRODUCT_DEFINITION_SHAPE ( 'NONE', 'NONE',  #193 ) ;
#20 = AXIS2_PLACEMENT_3D ( 'NONE', #159, #214, #35 ) ;
#21 = DIRECTION ( 'NONE',  ( -1.616918796593762296E-30, 1.000000000000000000, -4.804067462039318491E-16 ) ) ;
#22 = PRODUCT_RELATED_PRODUCT_CATEGORY ( 'detail', '', ( #73 ) ) ;
#23 = EDGE_LOOP ( 'NONE', ( #151 ) ) ;
#24 = DIRECTION ( 'NONE',  ( -1.633958190897580775E-30, 1.000000000000000000, -4.679842256980173521E-16 ) ) ;
#25 = ORGANIZATION ( 'UNSPECIFIED', 'UNSPECIFIED', '' ) ;
#26 = ORIENTED_EDGE ( 'NONE', *, *, #211, .F. ) ;
#27 = EDGE_LOOP ( 'NONE', ( #227 ) ) ;
#28 = DIRECTION ( 'NONE',  ( 0.0000000000000000000, 1.000000000000000000, 0.0000000000000000000 ) ) ;
#29 = ORIENTED_EDGE ( 'NONE', *, *, #148, .T. ) ;
#30 = CARTESIAN_POINT ( 'NONE',  ( 1.396592535537253145E-15, 2.143999999999998796, 0.3999999999999999112 ) ) ;
#31 = AXIS2_PLACEMENT_3D ( 'NONE', #82, #109, #210 ) ;
#32 = DIRECTION ( 'NONE',  ( -3.491481338843133355E-15, -4.679842256980173521E-16, -1.000000000000000000 ) ) ;
#33 = ADVANCED_FACE ( 'NONE', ( #64, #139 ), #92, .T. ) ;
#34 = PLANE ( 'NONE',  #140 ) ;
#35 = DIRECTION ( 'NONE',  ( 1.000000000000000000, 0.0000000000000000000, 0.0000000000000000000 ) ) ;
#36 = CIRCLE ( 'NONE', #10, 2.143999999999991690 ) ;
#37 = DIRECTION ( 'NONE',  ( 1.633958190897580775E-30, -1.000000000000000000, 4.679842256980173521E-16 ) ) ;
#38 = COORDINATED_UNIVERSAL_TIME_OFFSET ( 1, 0, .AHEAD. ) ;
#39 = PERSON_AND_ORGANIZATION ( #178, #25 ) ;
#40 = CONICAL_SURFACE ( 'NONE', #115, 1.999999999999995337, 0.7853981633974516097 ) ;
#41 = EDGE_LOOP ( 'NONE', ( #191 ) ) ;
#42 = CARTESIAN_POINT ( 'NONE',  ( 4.798148367710792761E-14, -1.241185874043605068E-15, 13.74244311241431582 ) ) ;
#43 = DIRECTION ( 'NONE',  ( 0.0000000000000000000, 1.000000000000000000, 0.0000000000000000000 ) ) ;
#44 = VERTEX_POINT ( 'NONE', #30 ) ;
#45 = DATE_AND_TIME ( #46, #137 ) ;
#46 = CALENDAR_DATE ( 2021, 26, 11 ) ;
#47 = CIRCLE ( 'NONE', #241, 2.143999999999998796 ) ;
#48 = ADVANCED_FACE ( 'NONE', ( #215 ), #34, .T. ) ;
#49 = FACE_OUTER_BOUND ( 'NONE', #41, .T. ) ;
#50 = CARTESIAN_POINT ( 'NONE',  ( 2.779219145719134403E-13, 1.999999999999988010, 79.60000000000000853 ) ) ;
#51 = AXIS2_PLACEMENT_3D ( 'NONE', #86, #8, #234 ) ;
#52 = APPLICATION_CONTEXT ( 'configuration controlled 3d designs of mechanical parts and assemblies' ) ;
#53 = DIRECTION ( 'NONE',  ( 3.153425691349006731E-31, 1.000000000000000000, 9.031770143711729009E-17 ) ) ;
#54 = EDGE_LOOP ( 'NONE', ( #6 ) ) ;
#55 = CARTESIAN_POINT ( 'NONE',  ( 4.798148367710792761E-14, 2.143999999999998352, 13.74244311241431582 ) ) ;
#56 = CARTESIAN_POINT ( 'NONE',  ( 2.779219145719134403E-13, -7.189289034394536528E-15, 79.60000000000000853 ) ) ;
#57 = CLOSED_SHELL ( 'NONE', ( #65, #87, #222, #48 ) ) ;
#58 = EDGE_LOOP ( 'NONE', ( #176 ) ) ;
#59 = CARTESIAN_POINT ( 'NONE',  ( 2.779219145719134403E-13, -7.189289034394536528E-15, 79.60000000000000853 ) ) ;
#60 = DIRECTION ( 'NONE',  ( -1.633958190897580775E-30, 1.000000000000000000, -4.679842256980173521E-16 ) ) ;
#61 =( NAMED_UNIT ( * ) SI_UNIT ( $, .STERADIAN. ) SOLID_ANGLE_UNIT ( ) );
#62 = APPROVAL_PERSON_ORGANIZATION ( #218, #181, #180 ) ;
#63 = DATE_TIME_ROLE ( 'creation_date' ) ;
#64 = FACE_BOUND ( 'NONE', #27, .T. ) ;
#65 = ADVANCED_FACE ( 'NONE', ( #49 ), #68, .T. ) ;
#66 = VERTEX_POINT ( 'NONE', #161 ) ;
#67 = PERSON_AND_ORGANIZATION_ROLE ( 'design_owner' ) ;
#68 = PLANE ( 'NONE',  #100 ) ;
#69 = UNCERTAINTY_MEASURE_WITH_UNIT (LENGTH_MEASURE( 1.000000000000000082E-05 ), #101, 'distance_accuracy_value', 'NONE');
#70 = DIRECTION ( 'NONE',  ( -3.491481338843133355E-15, -4.679842256980173521E-16, -1.000000000000000000 ) ) ;
#71 = FACE_OUTER_BOUND ( 'NONE', #54, .T. ) ;
#72 = AXIS2_PLACEMENT_3D ( 'NONE', #59, #136, #133 ) ;
#73 = PRODUCT ( '321332', '321332', '', ( #124 ) ) ;
#74 = CC_DESIGN_APPROVAL ( #213, ( #78 ) ) ;
#75 = EDGE_LOOP ( 'NONE', ( #206 ) ) ;
#76 = FACE_OUTER_BOUND ( 'NONE', #172, .T. ) ;
#77 = VERTEX_POINT ( 'NONE', #55 ) ;
#78 = PRODUCT_DEFINITION_FORMATION_WITH_SPECIFIED_SOURCE ( 'ANY', '', #73, .NOT_KNOWN. ) ;
#79 = DIRECTION ( 'NONE',  ( 3.153425691349006731E-31, 1.000000000000000000, 9.031770143711729009E-17 ) ) ;
#80 = EDGE_LOOP ( 'NONE', ( #131 ) ) ;
#81 = CYLINDRICAL_SURFACE ( 'NONE', #157, 2.143999999999995243 ) ;
#82 = CARTESIAN_POINT ( 'NONE',  ( 4.885231259955590439E-14, -1.263712492114123682E-15, 13.99185842870425134 ) ) ;
#83 = CALENDAR_DATE ( 2021, 26, 11 ) ;
#84 = CC_DESIGN_PERSON_AND_ORGANIZATION_ASSIGNMENT ( #144, #125, ( #78 ) ) ;
#85 =( NAMED_UNIT ( * ) PLANE_ANGLE_UNIT ( ) SI_UNIT ( $, .RADIAN. ) );
#86 = CARTESIAN_POINT ( 'NONE',  ( 2.793185071074506684E-13, -7.225416114969383207E-15, 80.00000000000000000 ) ) ;
#87 = ADVANCED_FACE ( 'NONE', ( #183, #163 ), #81, .T. ) ;
#88 = LOCAL_TIME ( 11, 2, 43.00000000000000000, #146 ) ;
#89 = APPROVAL_ROLE ( '' ) ;
#90 =( GEOMETRIC_REPRESENTATION_CONTEXT ( 3 ) GLOBAL_UNCERTAINTY_ASSIGNED_CONTEXT ( ( #69 ) ) GLOBAL_UNIT_ASSIGNED_CONTEXT ( ( #101, #85, #61 ) ) REPRESENTATION_CONTEXT ( 'NONE', 'WORKASPACE' ) );
#91 = FACE_BOUND ( 'NONE', #96, .T. ) ;
#92 = CONICAL_SURFACE ( 'NONE', #150, 2.143999999999999684, 0.5235987755982912661 ) ;
#93 = AXIS2_PLACEMENT_3D ( 'NONE', #42, #108, #242 ) ;
#94 = DIRECTION ( 'NONE',  ( -3.491481338843133355E-15, -4.679842256980173521E-16, -1.000000000000000000 ) ) ;
#95 = APPROVAL ( #223, 'UNSPECIFIED' ) ;
#96 = EDGE_LOOP ( 'NONE', ( #229 ) ) ;
#97 = DIRECTION ( 'NONE',  ( -3.491481338843133355E-15, 9.031770143711729009E-17, -1.000000000000000000 ) ) ;
#98 = APPLICATION_PROTOCOL_DEFINITION ( 'international standard', 'config_control_design', 1994, #52 ) ;
#99 = ADVANCED_FACE ( 'NONE', ( #71 ), #106, .T. ) ;
#100 = AXIS2_PLACEMENT_3D ( 'NONE', #123, #201, #37 ) ;
#101 =( LENGTH_UNIT ( ) NAMED_UNIT ( * ) SI_UNIT ( .MILLI., .METRE. ) );
#102 = APPROVAL_STATUS ( 'not_yet_approved' ) ;
#103 = PERSON_AND_ORGANIZATION_ROLE ( 'creator' ) ;
#104 = DESIGN_CONTEXT ( 'detailed design', #52, 'design' ) ;
#105 = PERSON_AND_ORGANIZATION_ROLE ( 'design_supplier' ) ;
#106 = PLANE ( 'NONE',  #224 ) ;
#107 = LOCAL_TIME ( 11, 2, 43.00000000000000000, #138 ) ;
#108 = DIRECTION ( 'NONE',  ( -3.491481338843133355E-15, 9.031770143711729009E-17, -1.000000000000000000 ) ) ;
#109 = DIRECTION ( 'NONE',  ( -3.491481338843133355E-15, 9.031770143711729009E-17, -1.000000000000000000 ) ) ;
#110 = CIRCLE ( 'NONE', #72, 1.999999999999995337 ) ;
#111 = FACE_BOUND ( 'NONE', #194, .T. ) ;
#112 = CARTESIAN_POINT ( 'NONE',  ( 3.125859880740687041E-30, 4.189777844877810236E-31, 8.952818524232494416E-16 ) ) ;
#113 = ORIENTED_EDGE ( 'NONE', *, *, #153, .F. ) ;
#114 = CARTESIAN_POINT ( 'NONE',  ( 4.798148367710793392E-14, 6.431246599162266351E-15, 13.74244311241431760 ) ) ;
#115 = AXIS2_PLACEMENT_3D ( 'NONE', #56, #132, #28 ) ;
#116 = CARTESIAN_POINT ( 'NONE',  ( 0.0000000000000000000, 0.0000000000000000000, 0.0000000000000000000 ) ) ;
#117 = EDGE_CURVE ( 'NONE', #77, #77, #126, .T. ) ;
#118 = CARTESIAN_POINT ( 'NONE',  ( 4.798148367710792761E-14, -1.241185874043605068E-15, 13.74244311241431582 ) ) ;
#119 = APPROVAL_DATE_TIME ( #45, #181 ) ;
#120 = AXIS2_PLACEMENT_3D ( 'NONE', #225, #207, #24 ) ;
#121 = CARTESIAN_POINT ( 'NONE',  ( -1.562929940370343521E-30, 1.913059892324149081, -4.476409262116247208E-16 ) ) ;
#122 = PERSON_AND_ORGANIZATION ( #178, #25 ) ;
#123 = CARTESIAN_POINT ( 'NONE',  ( 4.798148367710793392E-14, 6.431246599162265563E-15, 13.74244311241431760 ) ) ;
#124 = MECHANICAL_CONTEXT ( 'NONE', #16, 'mechanical' ) ;
#125 = PERSON_AND_ORGANIZATION_ROLE ( 'creator' ) ;
#126 = CIRCLE ( 'NONE', #93, 2.143999999999999684 ) ;
#127 = CC_DESIGN_PERSON_AND_ORGANIZATION_ASSIGNMENT ( #216, #67, ( #73 ) ) ;
#128 = EDGE_LOOP ( 'NONE', ( #26 ) ) ;
#129 = APPROVAL_DATE_TIME ( #205, #95 ) ;
#130 = SHAPE_DEFINITION_REPRESENTATION ( #19, #174 ) ;
#131 = ORIENTED_EDGE ( 'NONE', *, *, #153, .T. ) ;
#132 = DIRECTION ( 'NONE',  ( -3.491481338843133355E-15, 9.031770143711729009E-17, -1.000000000000000000 ) ) ;
#133 = DIRECTION ( 'NONE',  ( 0.0000000000000000000, 1.000000000000000000, 0.0000000000000000000 ) ) ;
#134 = CC_DESIGN_PERSON_AND_ORGANIZATION_ASSIGNMENT ( #122, #103, ( #193 ) ) ;
#135 = EDGE_LOOP ( 'NONE', ( #170 ) ) ;
#136 = DIRECTION ( 'NONE',  ( -3.491481338843133355E-15, 9.031770143711729009E-17, -1.000000000000000000 ) ) ;
#137 = LOCAL_TIME ( 11, 2, 43.00000000000000000, #38 ) ;
#138 = COORDINATED_UNIVERSAL_TIME_OFFSET ( 1, 0, .AHEAD. ) ;
#139 = FACE_OUTER_BOUND ( 'NONE', #23, .T. ) ;
#140 = AXIS2_PLACEMENT_3D ( 'NONE', #121, #160, #141 ) ;
#141 = DIRECTION ( 'NONE',  ( -1.633958190897580775E-30, 1.000000000000000000, -4.679842256980173521E-16 ) ) ;
#142 = CARTESIAN_POINT ( 'NONE',  ( 4.885231259955590439E-14, 1.999999999999990452, 13.99185842870425134 ) ) ;
#143 = CC_DESIGN_DATE_AND_TIME_ASSIGNMENT ( #166, #190, ( #232 ) ) ;
#144 = PERSON_AND_ORGANIZATION ( #178, #25 ) ;
#145 = AXIS2_PLACEMENT_3D ( 'NONE', #112, #7, #173 ) ;
#146 = COORDINATED_UNIVERSAL_TIME_OFFSET ( 1, 0, .AHEAD. ) ;
#147 = CARTESIAN_POINT ( 'NONE',  ( 4.798148367710793392E-14, 2.143999999999998352, 13.74244311241431760 ) ) ;
#148 = EDGE_CURVE ( 'NONE', #44, #44, #47, .T. ) ;
#149 = CALENDAR_DATE ( 2021, 26, 11 ) ;
#150 = AXIS2_PLACEMENT_3D ( 'NONE', #118, #158, #196 ) ;
#151 = ORIENTED_EDGE ( 'NONE', *, *, #117, .F. ) ;
#152 = VERTEX_POINT ( 'NONE', #228 ) ;
#153 = EDGE_CURVE ( 'NONE', #152, #152, #204, .T. ) ;
#154 = CARTESIAN_POINT ( 'NONE',  ( 0.0000000000000000000, 0.0000000000000000000, 0.0000000000000000000 ) ) ;
#155 = CC_DESIGN_APPROVAL ( #181, ( #193 ) ) ;
#156 = PERSON_AND_ORGANIZATION ( #178, #25 ) ;
#157 = AXIS2_PLACEMENT_3D ( 'NONE', #116, #32, #60 ) ;
#158 = DIRECTION ( 'NONE',  ( -3.491481338843133355E-15, 9.031770143711729009E-17, -1.000000000000000000 ) ) ;
#159 = CARTESIAN_POINT ( 'NONE',  ( 0.0000000000000000000, 0.0000000000000000000, 0.0000000000000000000 ) ) ;
#160 = DIRECTION ( 'NONE',  ( -3.491481338843133355E-15, -4.679842256980173521E-16, -1.000000000000000000 ) ) ;
#161 = CARTESIAN_POINT ( 'NONE',  ( 4.798148367710792761E-14, 2.143999999999998352, 13.74244311241431582 ) ) ;
#162 = CIRCLE ( 'NONE', #31, 1.999999999999991784 ) ;
#163 = FACE_OUTER_BOUND ( 'NONE', #230, .T. ) ;
#164 = DATE_AND_TIME ( #13, #217 ) ;
#165 = CARTESIAN_POINT ( 'NONE',  ( 1.396592535537256498E-15, 1.871936902792073747E-16, 0.4000000000000009659 ) ) ;
#166 = DATE_AND_TIME ( #149, #107 ) ;
#167 = CONICAL_SURFACE ( 'NONE', #145, 1.913059892324149081, 0.5235987755982979275 ) ;
#168 = AXIS2_PLACEMENT_3D ( 'NONE', #154, #97, #79 ) ;
#169 = FACE_OUTER_BOUND ( 'NONE', #1, .T. ) ;
#170 = ORIENTED_EDGE ( 'NONE', *, *, #189, .F. ) ;
#171 = ADVANCED_FACE ( 'NONE', ( #91, #169 ), #40, .T. ) ;
#172 = EDGE_LOOP ( 'NONE', ( #29 ) ) ;
#173 = DIRECTION ( 'NONE',  ( 1.633958190897580775E-30, -1.000000000000000000, 4.679842256980173521E-16 ) ) ;
#174 = ADVANCED_BREP_SHAPE_REPRESENTATION ( '321332', ( #237, #238, #20 ), #90 ) ;
#175 = CARTESIAN_POINT ( 'NONE',  ( 2.793185071074506684E-13, -7.225416114969383207E-15, 80.00000000000000000 ) ) ;
#176 = ORIENTED_EDGE ( 'NONE', *, *, #219, .T. ) ;
#177 = APPROVAL_PERSON_ORGANIZATION ( #18, #95, #89 ) ;
#178 = PERSON ( 'UNSPECIFIED', 'UNSPECIFIED', 'UNSPECIFIED', ('UNSPECIFIED'), ('UNSPECIFIED'), ('UNSPECIFIED') ) ;
#179 = VERTEX_POINT ( 'NONE', #142 ) ;
#180 = APPROVAL_ROLE ( '' ) ;
#181 = APPROVAL ( #202, 'UNSPECIFIED' ) ;
#182 = COORDINATED_UNIVERSAL_TIME_OFFSET ( 1, 0, .AHEAD. ) ;
#183 = FACE_OUTER_BOUND ( 'NONE', #58, .T. ) ;
#184 = APPROVAL_ROLE ( '' ) ;
#185 = CIRCLE ( 'NONE', #203, 1.599999999999994982 ) ;
#186 = DATE_AND_TIME ( #83, #188 ) ;
#187 = DIRECTION ( 'NONE',  ( -3.491481338843133355E-15, 9.031770143711729009E-17, -1.000000000000000000 ) ) ;
#188 = LOCAL_TIME ( 11, 2, 43.00000000000000000, #235 ) ;
#189 = EDGE_CURVE ( 'NONE', #9, #9, #185, .T. ) ;
#190 = DATE_TIME_ROLE ( 'classification_date' ) ;
#191 = ORIENTED_EDGE ( 'NONE', *, *, #219, .F. ) ;
#192 = ORIENTED_EDGE ( 'NONE', *, *, #148, .F. ) ;
#193 = PRODUCT_DEFINITION ( 'UNKNOWN', '', #78, #104 ) ;
#194 = EDGE_LOOP ( 'NONE', ( #113 ) ) ;
#195 = DIRECTION ( 'NONE',  ( -2.874522305055587069E-30, 1.000000000000000000, -8.091060988697825720E-16 ) ) ;
#196 = DIRECTION ( 'NONE',  ( 0.0000000000000000000, 1.000000000000000000, 0.0000000000000000000 ) ) ;
#197 = CYLINDRICAL_SURFACE ( 'NONE', #168, 1.999999999999993561 ) ;
#198 = FACE_OUTER_BOUND ( 'NONE', #135, .T. ) ;
#199 = EDGE_CURVE ( 'NONE', #12, #12, #110, .T. ) ;
#200 = PERSON_AND_ORGANIZATION ( #178, #25 ) ;
#201 = DIRECTION ( 'NONE',  ( 3.491481338843133355E-15, 4.679842256980173521E-16, 1.000000000000000000 ) ) ;
#202 = APPROVAL_STATUS ( 'not_yet_approved' ) ;
#203 = AXIS2_PLACEMENT_3D ( 'NONE', #175, #3, #43 ) ;
#204 = CIRCLE ( 'NONE', #120, 1.913059892324149081 ) ;
#205 = DATE_AND_TIME ( #221, #88 ) ;
#206 = ORIENTED_EDGE ( 'NONE', *, *, #199, .T. ) ;
#207 = DIRECTION ( 'NONE',  ( -3.491481338843133355E-15, -4.679842256980173521E-16, -1.000000000000000000 ) ) ;
#208 = ADVANCED_FACE ( 'NONE', ( #209, #5 ), #197, .T. ) ;
#209 = FACE_OUTER_BOUND ( 'NONE', #75, .T. ) ;
#210 = DIRECTION ( 'NONE',  ( 0.0000000000000000000, 1.000000000000000000, 0.0000000000000000000 ) ) ;
#211 = EDGE_CURVE ( 'NONE', #179, #179, #162, .T. ) ;
#212 = CC_DESIGN_APPROVAL ( #95, ( #232 ) ) ;
#213 = APPROVAL ( #102, 'UNSPECIFIED' ) ;
#214 = DIRECTION ( 'NONE',  ( 0.0000000000000000000, 0.0000000000000000000, 1.000000000000000000 ) ) ;
#215 = FACE_OUTER_BOUND ( 'NONE', #80, .T. ) ;
#216 = PERSON_AND_ORGANIZATION ( #178, #25 ) ;
#217 = LOCAL_TIME ( 11, 2, 43.00000000000000000, #182 ) ;
#218 = PERSON_AND_ORGANIZATION ( #178, #25 ) ;
#219 = EDGE_CURVE ( 'NONE', #66, #66, #36, .T. ) ;
#220 = CARTESIAN_POINT ( 'NONE',  ( 2.793185071074506684E-13, 1.599999999999987876, 80.00000000000000000 ) ) ;
#221 = CALENDAR_DATE ( 2021, 26, 11 ) ;
#222 = ADVANCED_FACE ( 'NONE', ( #76, #111 ), #167, .T. ) ;
#223 = APPROVAL_STATUS ( 'not_yet_approved' ) ;
#224 = AXIS2_PLACEMENT_3D ( 'NONE', #147, #187, #53 ) ;
#225 = CARTESIAN_POINT ( 'NONE',  ( 3.125859880740687041E-30, 4.189777844877810236E-31, 8.952818524232494416E-16 ) ) ;
#226 = CC_DESIGN_DATE_AND_TIME_ASSIGNMENT ( #186, #63, ( #193 ) ) ;
#227 = ORIENTED_EDGE ( 'NONE', *, *, #211, .T. ) ;
#228 = CARTESIAN_POINT ( 'NONE',  ( 0.0000000000000000000, 1.913059892324149081, 0.0000000000000000000 ) ) ;
#229 = ORIENTED_EDGE ( 'NONE', *, *, #189, .T. ) ;
#230 = EDGE_LOOP ( 'NONE', ( #192 ) ) ;
#231 = PERSON_AND_ORGANIZATION_ROLE ( 'classification_officer' ) ;
#232 = SECURITY_CLASSIFICATION ( '', '', #15 ) ;
#233 = CC_DESIGN_PERSON_AND_ORGANIZATION_ASSIGNMENT ( #156, #231, ( #232 ) ) ;
#234 = DIRECTION ( 'NONE',  ( -3.153425691349006731E-31, -1.000000000000000000, -9.031770143711729009E-17 ) ) ;
#235 = COORDINATED_UNIVERSAL_TIME_OFFSET ( 1, 0, .AHEAD. ) ;
#236 = APPLICATION_PROTOCOL_DEFINITION ( 'international standard', 'config_control_design', 1994, #16 ) ;
#237 = MANIFOLD_SOLID_BREP ( 'Corps-Déplacer/Copier1[1]', #239 ) ;
#238 = MANIFOLD_SOLID_BREP ( 'Corps-Déplacer/Copier1[2]', #57 ) ;
#239 = CLOSED_SHELL ( 'NONE', ( #17, #171, #208, #33, #99 ) ) ;
#240 = APPROVAL_DATE_TIME ( #164, #213 ) ;
#241 = AXIS2_PLACEMENT_3D ( 'NONE', #165, #70, #21 ) ;
#242 = DIRECTION ( 'NONE',  ( 0.0000000000000000000, 1.000000000000000000, 0.0000000000000000000 ) ) ;
#243 = CC_DESIGN_SECURITY_CLASSIFICATION ( #232, ( #78 ) ) ;
ENDSEC;
END-ISO-10303-21;
