ISO-10303-21;
HEADER;
FILE_DESCRIPTION (( 'STEP AP203' ),
    '1' );
FILE_NAME ('321331.step',
    '2021-11-26T10:02:42',
    ( '' ),
    ( '' ),
    'SwSTEP 2.0',
    'SolidWorks 2019',
    '' );
FILE_SCHEMA (( 'CONFIG_CONTROL_DESIGN' ));
ENDSEC;

DATA;
#1 = CARTESIAN_POINT ( 'NONE',  ( 0.0000000000000000000, 0.0000000000000000000, 0.0000000000000000000 ) ) ;
#2 = CARTESIAN_POINT ( 'NONE',  ( 2.793185071074506684E-13, -7.225416114969383207E-15, 80.00000000000000000 ) ) ;
#3 = AXIS2_PLACEMENT_3D ( 'NONE', #105, #18, #186 ) ;
#4 = DIRECTION ( 'NONE',  ( 0.0000000000000000000, 1.000000000000000000, 0.0000000000000000000 ) ) ;
#5 = CARTESIAN_POINT ( 'NONE',  ( 2.793185071074506684E-13, 1.599999999999987876, 80.00000000000000000 ) ) ;
#6 = CC_DESIGN_PERSON_AND_ORGANIZATION_ASSIGNMENT ( #203, #196, ( #109 ) ) ;
#7 = DIRECTION ( 'NONE',  ( -3.491481338843133355E-15, -4.675352426169391324E-16, -1.000000000000000000 ) ) ;
#8 = PERSON_AND_ORGANIZATION ( #38, #151 ) ;
#9 = DATE_TIME_ROLE ( 'creation_date' ) ;
#10 = APPROVAL_STATUS ( 'not_yet_approved' ) ;
#11 = EDGE_LOOP ( 'NONE', ( #97 ) ) ;
#12 = CARTESIAN_POINT ( 'NONE',  ( 1.396592535537256300E-15, 1.870140970467760721E-16, 0.4000000000000009104 ) ) ;
#13 = CC_DESIGN_DATE_AND_TIME_ASSIGNMENT ( #42, #9, ( #166 ) ) ;
#14 = LOCAL_TIME ( 11, 2, 42.00000000000000000, #159 ) ;
#15 = DIRECTION ( 'NONE',  ( -3.491481338843133355E-15, -4.675352426169391324E-16, -1.000000000000000000 ) ) ;
#16 = EDGE_CURVE ( 'NONE', #229, #229, #26, .T. ) ;
#17 = FACE_OUTER_BOUND ( 'NONE', #25, .T. ) ;
#18 = DIRECTION ( 'NONE',  ( 3.491481338843133355E-15, 4.675352426169391324E-16, 1.000000000000000000 ) ) ;
#19 = AXIS2_PLACEMENT_3D ( 'NONE', #34, #108, #187 ) ;
#20 =( LENGTH_UNIT ( ) NAMED_UNIT ( * ) SI_UNIT ( .MILLI., .METRE. ) );
#21 = CC_DESIGN_PERSON_AND_ORGANIZATION_ASSIGNMENT ( #178, #231, ( #166 ) ) ;
#22 = PLANE ( 'NONE',  #126 ) ;
#23 = PERSON_AND_ORGANIZATION_ROLE ( 'classification_officer' ) ;
#24 = COORDINATED_UNIVERSAL_TIME_OFFSET ( 1, 0, .AHEAD. ) ;
#25 = EDGE_LOOP ( 'NONE', ( #163 ) ) ;
#26 = CIRCLE ( 'NONE', #68, 1.999999999999995337 ) ;
#27 = CALENDAR_DATE ( 2021, 26, 11 ) ;
#28 = ORIENTED_EDGE ( 'NONE', *, *, #195, .F. ) ;
#29 = CLOSED_SHELL ( 'NONE', ( #95, #243, #85, #218, #75 ) ) ;
#30 = SECURITY_CLASSIFICATION_LEVEL ( 'unclassified' ) ;
#31 = PLANE ( 'NONE',  #3 ) ;
#32 = DIRECTION ( 'NONE',  ( -1.632390574848540196E-30, 1.000000000000000000, -4.675352426169391324E-16 ) ) ;
#33 = VERTEX_POINT ( 'NONE', #35 ) ;
#34 = CARTESIAN_POINT ( 'NONE',  ( 4.801172079247070896E-14, -1.241968048282164759E-15, 13.75110336645216158 ) ) ;
#35 = CARTESIAN_POINT ( 'NONE',  ( 0.0000000000000000000, 1.908059892324147855, 0.0000000000000000000 ) ) ;
#36 = AXIS2_PLACEMENT_3D ( 'NONE', #111, #149, #4 ) ;
#37 = COORDINATED_UNIVERSAL_TIME_OFFSET ( 1, 0, .AHEAD. ) ;
#38 = PERSON ( 'UNSPECIFIED', 'UNSPECIFIED', 'UNSPECIFIED', ('UNSPECIFIED'), ('UNSPECIFIED'), ('UNSPECIFIED') ) ;
#39 = EDGE_CURVE ( 'NONE', #224, #224, #64, .T. ) ;
#40 = CARTESIAN_POINT ( 'NONE',  ( 0.0000000000000000000, 0.0000000000000000000, 0.0000000000000000000 ) ) ;
#41 = CC_DESIGN_PERSON_AND_ORGANIZATION_ASSIGNMENT ( #219, #104, ( #109 ) ) ;
#42 = DATE_AND_TIME ( #77, #156 ) ;
#43 = EDGE_LOOP ( 'NONE', ( #98 ) ) ;
#44 = CONICAL_SURFACE ( 'NONE', #157, 1.999999999999995337, 0.7853981633974516097 ) ;
#45 = DIRECTION ( 'NONE',  ( 0.0000000000000000000, 1.000000000000000000, 0.0000000000000000000 ) ) ;
#46 = LOCAL_TIME ( 11, 2, 42.00000000000000000, #37 ) ;
#47 = CIRCLE ( 'NONE', #167, 1.908059892324147855 ) ;
#48 = ADVANCED_FACE ( 'NONE', ( #162, #216 ), #222, .T. ) ;
#49 = DIRECTION ( 'NONE',  ( -3.491481338843133355E-15, 9.031770143711729009E-17, -1.000000000000000000 ) ) ;
#50 = CARTESIAN_POINT ( 'NONE',  ( 3.114698984476458677E-30, 4.170812913089899684E-31, 8.920852446854213365E-16 ) ) ;
#51 = ADVANCED_BREP_SHAPE_REPRESENTATION ( '321331', ( #147, #59, #182 ), #112 ) ;
#52 =( NAMED_UNIT ( * ) PLANE_ANGLE_UNIT ( ) SI_UNIT ( $, .RADIAN. ) );
#53 = AXIS2_PLACEMENT_3D ( 'NONE', #12, #15, #83 ) ;
#54 = EDGE_CURVE ( 'NONE', #191, #191, #146, .T. ) ;
#55 = CARTESIAN_POINT ( 'NONE',  ( 4.885231259955590439E-14, 1.999999999999990452, 13.99185842870425134 ) ) ;
#56 = PRODUCT ( '321331', '321331', '', ( #177 ) ) ;
#57 = APPROVAL_STATUS ( 'not_yet_approved' ) ;
#58 = DATE_AND_TIME ( #119, #89 ) ;
#59 = MANIFOLD_SOLID_BREP ( 'Corps-Déplacer/Copier1[2]', #106 ) ;
#60 = EDGE_LOOP ( 'NONE', ( #183 ) ) ;
#61 = APPROVAL_STATUS ( 'not_yet_approved' ) ;
#62 = APPROVAL_ROLE ( '' ) ;
#63 = APPLICATION_CONTEXT ( 'configuration controlled 3d designs of mechanical parts and assemblies' ) ;
#64 = CIRCLE ( 'NONE', #53, 2.138999999999997570 ) ;
#65 = ORIENTED_EDGE ( 'NONE', *, *, #39, .T. ) ;
#66 = EDGE_LOOP ( 'NONE', ( #102 ) ) ;
#67 = DIRECTION ( 'NONE',  ( -3.491481338843133355E-15, 9.031770143711729009E-17, -1.000000000000000000 ) ) ;
#68 = AXIS2_PLACEMENT_3D ( 'NONE', #202, #181, #237 ) ;
#69 = APPLICATION_CONTEXT ( 'configuration controlled 3d designs of mechanical parts and assemblies' ) ;
#70 = CYLINDRICAL_SURFACE ( 'NONE', #91, 1.999999999999993561 ) ;
#71 = CARTESIAN_POINT ( 'NONE',  ( 4.801172079247070896E-14, 2.138999999999998014, 13.75110336645216158 ) ) ;
#72 = FACE_OUTER_BOUND ( 'NONE', #116, .T. ) ;
#73 = FACE_OUTER_BOUND ( 'NONE', #60, .T. ) ;
#74 = DIRECTION ( 'NONE',  ( -1.632390574848539845E-30, 1.000000000000000000, -4.675352426169391324E-16 ) ) ;
#75 = ADVANCED_FACE ( 'NONE', ( #122 ), #242, .T. ) ;
#76 = VERTEX_POINT ( 'NONE', #5 ) ;
#77 = CALENDAR_DATE ( 2021, 26, 11 ) ;
#78 = CC_DESIGN_SECURITY_CLASSIFICATION ( #225, ( #109 ) ) ;
#79 = APPROVAL_DATE_TIME ( #58, #135 ) ;
#80 = EDGE_LOOP ( 'NONE', ( #160 ) ) ;
#81 = PERSON_AND_ORGANIZATION ( #38, #151 ) ;
#82 = EDGE_LOOP ( 'NONE', ( #239 ) ) ;
#83 = DIRECTION ( 'NONE',  ( -1.620698410424043231E-30, 1.000000000000000000, -4.561860473291047679E-16 ) ) ;
#84 = ORIENTED_EDGE ( 'NONE', *, *, #201, .T. ) ;
#85 = ADVANCED_FACE ( 'NONE', ( #103, #241 ), #70, .T. ) ;
#86 = LOCAL_TIME ( 11, 2, 42.00000000000000000, #215 ) ;
#87 = DIRECTION ( 'NONE',  ( 3.491481338843133355E-15, -9.031770143711729009E-17, 1.000000000000000000 ) ) ;
#88 = APPROVAL_DATE_TIME ( #170, #206 ) ;
#89 = LOCAL_TIME ( 11, 2, 42.00000000000000000, #113 ) ;
#90 = DIRECTION ( 'NONE',  ( -3.491481338843133355E-15, -4.675352426169391324E-16, -1.000000000000000000 ) ) ;
#91 = AXIS2_PLACEMENT_3D ( 'NONE', #107, #49, #142 ) ;
#92 = VERTEX_POINT ( 'NONE', #154 ) ;
#93 = CC_DESIGN_DATE_AND_TIME_ASSIGNMENT ( #136, #234, ( #225 ) ) ;
#94 = CARTESIAN_POINT ( 'NONE',  ( 2.779219145719134403E-13, -7.189289034394536528E-15, 79.60000000000000853 ) ) ;
#95 = ADVANCED_FACE ( 'NONE', ( #17 ), #141, .T. ) ;
#96 = DIRECTION ( 'NONE',  ( -1.632390574848539845E-30, 1.000000000000000000, -4.675352426169392310E-16 ) ) ;
#97 = ORIENTED_EDGE ( 'NONE', *, *, #54, .T. ) ;
#98 = ORIENTED_EDGE ( 'NONE', *, *, #238, .F. ) ;
#99 = APPROVAL_PERSON_ORGANIZATION ( #114, #153, #137 ) ;
#100 = ADVANCED_FACE ( 'NONE', ( #123 ), #31, .T. ) ;
#101 = CC_DESIGN_APPROVAL ( #206, ( #225 ) ) ;
#102 = ORIENTED_EDGE ( 'NONE', *, *, #54, .F. ) ;
#103 = FACE_OUTER_BOUND ( 'NONE', #220, .T. ) ;
#104 = PERSON_AND_ORGANIZATION_ROLE ( 'creator' ) ;
#105 = CARTESIAN_POINT ( 'NONE',  ( 4.801172079247070896E-14, 6.429125448684819418E-15, 13.75110336645216158 ) ) ;
#106 = CLOSED_SHELL ( 'NONE', ( #100, #48, #184, #228 ) ) ;
#107 = CARTESIAN_POINT ( 'NONE',  ( 0.0000000000000000000, 0.0000000000000000000, 0.0000000000000000000 ) ) ;
#108 = DIRECTION ( 'NONE',  ( -3.491481338843133355E-15, 9.031770143711729009E-17, -1.000000000000000000 ) ) ;
#109 = PRODUCT_DEFINITION_FORMATION_WITH_SPECIFIED_SOURCE ( 'ANY', '', #56, .NOT_KNOWN. ) ;
#110 = FACE_BOUND ( 'NONE', #80, .T. ) ;
#111 = CARTESIAN_POINT ( 'NONE',  ( 4.801172079247070896E-14, -1.241968048282164759E-15, 13.75110336645216158 ) ) ;
#112 =( GEOMETRIC_REPRESENTATION_CONTEXT ( 3 ) GLOBAL_UNCERTAINTY_ASSIGNED_CONTEXT ( ( #192 ) ) GLOBAL_UNIT_ASSIGNED_CONTEXT ( ( #20, #52, #173 ) ) REPRESENTATION_CONTEXT ( 'NONE', 'WORKASPACE' ) );
#113 = COORDINATED_UNIVERSAL_TIME_OFFSET ( 1, 0, .AHEAD. ) ;
#114 = PERSON_AND_ORGANIZATION ( #38, #151 ) ;
#115 = CIRCLE ( 'NONE', #121, 2.138999999999991797 ) ;
#116 = EDGE_LOOP ( 'NONE', ( #65 ) ) ;
#117 = DIRECTION ( 'NONE',  ( 0.0000000000000000000, 0.0000000000000000000, 1.000000000000000000 ) ) ;
#118 = EDGE_LOOP ( 'NONE', ( #28 ) ) ;
#119 = CALENDAR_DATE ( 2021, 26, 11 ) ;
#120 = EDGE_LOOP ( 'NONE', ( #217 ) ) ;
#121 = AXIS2_PLACEMENT_3D ( 'NONE', #164, #7, #131 ) ;
#122 = FACE_OUTER_BOUND ( 'NONE', #180, .T. ) ;
#123 = FACE_OUTER_BOUND ( 'NONE', #120, .T. ) ;
#124 = EDGE_CURVE ( 'NONE', #76, #76, #230, .T. ) ;
#125 = DIRECTION ( 'NONE',  ( 0.0000000000000000000, 1.000000000000000000, 0.0000000000000000000 ) ) ;
#126 = AXIS2_PLACEMENT_3D ( 'NONE', #213, #90, #74 ) ;
#127 = FACE_OUTER_BOUND ( 'NONE', #118, .T. ) ;
#128 = DIRECTION ( 'NONE',  ( 3.491481338843133355E-15, 4.675352426169391324E-16, 1.000000000000000000 ) ) ;
#129 = SHAPE_DEFINITION_REPRESENTATION ( #212, #51 ) ;
#130 = APPROVAL_PERSON_ORGANIZATION ( #8, #135, #134 ) ;
#131 = DIRECTION ( 'NONE',  ( -2.881241618531640274E-30, 1.000000000000000000, -8.109974174739662450E-16 ) ) ;
#132 = DIRECTION ( 'NONE',  ( 0.0000000000000000000, 1.000000000000000000, 0.0000000000000000000 ) ) ;
#133 = CC_DESIGN_APPROVAL ( #135, ( #109 ) ) ;
#134 = APPROVAL_ROLE ( '' ) ;
#135 = APPROVAL ( #10, 'UNSPECIFIED' ) ;
#136 = DATE_AND_TIME ( #233, #14 ) ;
#137 = APPROVAL_ROLE ( '' ) ;
#138 = AXIS2_PLACEMENT_3D ( 'NONE', #50, #128, #210 ) ;
#139 = APPLICATION_PROTOCOL_DEFINITION ( 'international standard', 'config_control_design', 1994, #63 ) ;
#140 = ORIENTED_EDGE ( 'NONE', *, *, #195, .T. ) ;
#141 = PLANE ( 'NONE',  #226 ) ;
#142 = DIRECTION ( 'NONE',  ( 3.153425691349006731E-31, 1.000000000000000000, 9.031770143711729009E-17 ) ) ;
#143 = DIRECTION ( 'NONE',  ( -3.491481338843133355E-15, 9.031770143711729009E-17, -1.000000000000000000 ) ) ;
#144 = DIRECTION ( 'NONE',  ( 3.153425691349006731E-31, 1.000000000000000000, 9.031770143711729009E-17 ) ) ;
#145 = CC_DESIGN_APPROVAL ( #153, ( #166 ) ) ;
#146 = CIRCLE ( 'NONE', #205, 1.999999999999991784 ) ;
#147 = MANIFOLD_SOLID_BREP ( 'Corps-Déplacer/Copier1[1]', #29 ) ;
#148 = FACE_BOUND ( 'NONE', #43, .T. ) ;
#149 = DIRECTION ( 'NONE',  ( -3.491481338843133355E-15, 9.031770143711729009E-17, -1.000000000000000000 ) ) ;
#150 = VERTEX_POINT ( 'NONE', #211 ) ;
#151 = ORGANIZATION ( 'UNSPECIFIED', 'UNSPECIFIED', '' ) ;
#152 = APPROVAL_PERSON_ORGANIZATION ( #185, #206, #62 ) ;
#153 = APPROVAL ( #57, 'UNSPECIFIED' ) ;
#154 = CARTESIAN_POINT ( 'NONE',  ( 4.801172079247070896E-14, 2.138999999999998014, 13.75110336645216158 ) ) ;
#155 = CARTESIAN_POINT ( 'NONE',  ( 2.779219145719134403E-13, 1.999999999999988010, 79.60000000000000853 ) ) ;
#156 = LOCAL_TIME ( 11, 2, 42.00000000000000000, #24 ) ;
#157 = AXIS2_PLACEMENT_3D ( 'NONE', #94, #172, #132 ) ;
#158 = PRODUCT_RELATED_PRODUCT_CATEGORY ( 'detail', '', ( #56 ) ) ;
#159 = COORDINATED_UNIVERSAL_TIME_OFFSET ( 1, 0, .AHEAD. ) ;
#160 = ORIENTED_EDGE ( 'NONE', *, *, #124, .T. ) ;
#161 = DIRECTION ( 'NONE',  ( 1.000000000000000000, 0.0000000000000000000, 0.0000000000000000000 ) ) ;
#162 = FACE_OUTER_BOUND ( 'NONE', #199, .T. ) ;
#163 = ORIENTED_EDGE ( 'NONE', *, *, #124, .F. ) ;
#164 = CARTESIAN_POINT ( 'NONE',  ( 4.801172079247071527E-14, 6.429125448684820207E-15, 13.75110336645216336 ) ) ;
#165 = CARTESIAN_POINT ( 'NONE',  ( 4.885231259955590439E-14, -1.263712492114123682E-15, 13.99185842870425134 ) ) ;
#166 = PRODUCT_DEFINITION ( 'UNKNOWN', '', #109, #179 ) ;
#167 = AXIS2_PLACEMENT_3D ( 'NONE', #209, #227, #96 ) ;
#168 = DIRECTION ( 'NONE',  ( -3.491481338843133355E-15, 9.031770143711729009E-17, -1.000000000000000000 ) ) ;
#169 = DIRECTION ( 'NONE',  ( -3.153425691349006731E-31, -1.000000000000000000, -9.031770143711729009E-17 ) ) ;
#170 = DATE_AND_TIME ( #188, #86 ) ;
#171 = AXIS2_PLACEMENT_3D ( 'NONE', #1, #240, #32 ) ;
#172 = DIRECTION ( 'NONE',  ( -3.491481338843133355E-15, 9.031770143711729009E-17, -1.000000000000000000 ) ) ;
#173 =( NAMED_UNIT ( * ) SI_UNIT ( $, .STERADIAN. ) SOLID_ANGLE_UNIT ( ) );
#174 = CONICAL_SURFACE ( 'NONE', #36, 2.138999999999999346, 0.5235987755982917102 ) ;
#175 = CARTESIAN_POINT ( 'NONE',  ( 1.396592535537252948E-15, 2.138999999999997570, 0.3999999999999999112 ) ) ;
#176 = APPROVAL_DATE_TIME ( #221, #153 ) ;
#177 = MECHANICAL_CONTEXT ( 'NONE', #69, 'mechanical' ) ;
#178 = PERSON_AND_ORGANIZATION ( #38, #151 ) ;
#179 = DESIGN_CONTEXT ( 'detailed design', #63, 'design' ) ;
#180 = EDGE_LOOP ( 'NONE', ( #140 ) ) ;
#181 = DIRECTION ( 'NONE',  ( -3.491481338843133355E-15, 9.031770143711729009E-17, -1.000000000000000000 ) ) ;
#182 = AXIS2_PLACEMENT_3D ( 'NONE', #40, #117, #161 ) ;
#183 = ORIENTED_EDGE ( 'NONE', *, *, #16, .F. ) ;
#184 = ADVANCED_FACE ( 'NONE', ( #72, #148 ), #208, .T. ) ;
#185 = PERSON_AND_ORGANIZATION ( #38, #151 ) ;
#186 = DIRECTION ( 'NONE',  ( 1.632390574848539845E-30, -1.000000000000000000, 4.675352426169391324E-16 ) ) ;
#187 = DIRECTION ( 'NONE',  ( 0.0000000000000000000, 1.000000000000000000, 0.0000000000000000000 ) ) ;
#188 = CALENDAR_DATE ( 2021, 26, 11 ) ;
#189 = APPLICATION_PROTOCOL_DEFINITION ( 'international standard', 'config_control_design', 1994, #69 ) ;
#190 = CC_DESIGN_PERSON_AND_ORGANIZATION_ASSIGNMENT ( #200, #235, ( #56 ) ) ;
#191 = VERTEX_POINT ( 'NONE', #55 ) ;
#192 = UNCERTAINTY_MEASURE_WITH_UNIT (LENGTH_MEASURE( 1.000000000000000082E-05 ), #20, 'distance_accuracy_value', 'NONE');
#193 = AXIS2_PLACEMENT_3D ( 'NONE', #2, #143, #125 ) ;
#194 = FACE_OUTER_BOUND ( 'NONE', #204, .T. ) ;
#195 = EDGE_CURVE ( 'NONE', #150, #150, #236, .T. ) ;
#196 = PERSON_AND_ORGANIZATION_ROLE ( 'design_supplier' ) ;
#197 = ORIENTED_EDGE ( 'NONE', *, *, #238, .T. ) ;
#198 = AXIS2_PLACEMENT_3D ( 'NONE', #71, #67, #144 ) ;
#199 = EDGE_LOOP ( 'NONE', ( #84 ) ) ;
#200 = PERSON_AND_ORGANIZATION ( #38, #151 ) ;
#201 = EDGE_CURVE ( 'NONE', #92, #92, #115, .T. ) ;
#202 = CARTESIAN_POINT ( 'NONE',  ( 2.779219145719134403E-13, -7.189289034394536528E-15, 79.60000000000000853 ) ) ;
#203 = PERSON_AND_ORGANIZATION ( #38, #151 ) ;
#204 = EDGE_LOOP ( 'NONE', ( #197 ) ) ;
#205 = AXIS2_PLACEMENT_3D ( 'NONE', #165, #168, #45 ) ;
#206 = APPROVAL ( #61, 'UNSPECIFIED' ) ;
#207 = CC_DESIGN_PERSON_AND_ORGANIZATION_ASSIGNMENT ( #81, #23, ( #225 ) ) ;
#208 = CONICAL_SURFACE ( 'NONE', #138, 1.908059892324147855, 0.5235987755982979275 ) ;
#209 = CARTESIAN_POINT ( 'NONE',  ( 3.114698984476458677E-30, 4.170812913089899684E-31, 8.920852446854213365E-16 ) ) ;
#210 = DIRECTION ( 'NONE',  ( 1.632390574848539845E-30, -1.000000000000000000, 4.675352426169392310E-16 ) ) ;
#211 = CARTESIAN_POINT ( 'NONE',  ( 4.801172079247070896E-14, 2.138999999999998014, 13.75110336645216158 ) ) ;
#212 = PRODUCT_DEFINITION_SHAPE ( 'NONE', 'NONE',  #166 ) ;
#213 = CARTESIAN_POINT ( 'NONE',  ( -1.557349492238229339E-30, 1.908059892324147855, -4.460426223427106683E-16 ) ) ;
#214 = FACE_BOUND ( 'NONE', #11, .T. ) ;
#215 = COORDINATED_UNIVERSAL_TIME_OFFSET ( 1, 0, .AHEAD. ) ;
#216 = FACE_OUTER_BOUND ( 'NONE', #82, .T. ) ;
#217 = ORIENTED_EDGE ( 'NONE', *, *, #201, .F. ) ;
#218 = ADVANCED_FACE ( 'NONE', ( #214, #127 ), #174, .T. ) ;
#219 = PERSON_AND_ORGANIZATION ( #38, #151 ) ;
#220 = EDGE_LOOP ( 'NONE', ( #232 ) ) ;
#221 = DATE_AND_TIME ( #27, #46 ) ;
#222 = CYLINDRICAL_SURFACE ( 'NONE', #171, 2.138999999999994461 ) ;
#223 = CARTESIAN_POINT ( 'NONE',  ( 2.793185071074506684E-13, -7.225416114969383207E-15, 80.00000000000000000 ) ) ;
#224 = VERTEX_POINT ( 'NONE', #175 ) ;
#225 = SECURITY_CLASSIFICATION ( '', '', #30 ) ;
#226 = AXIS2_PLACEMENT_3D ( 'NONE', #223, #87, #169 ) ;
#227 = DIRECTION ( 'NONE',  ( -3.491481338843133355E-15, -4.675352426169391324E-16, -1.000000000000000000 ) ) ;
#228 = ADVANCED_FACE ( 'NONE', ( #194 ), #22, .T. ) ;
#229 = VERTEX_POINT ( 'NONE', #155 ) ;
#230 = CIRCLE ( 'NONE', #193, 1.599999999999994982 ) ;
#231 = PERSON_AND_ORGANIZATION_ROLE ( 'creator' ) ;
#232 = ORIENTED_EDGE ( 'NONE', *, *, #16, .T. ) ;
#233 = CALENDAR_DATE ( 2021, 26, 11 ) ;
#234 = DATE_TIME_ROLE ( 'classification_date' ) ;
#235 = PERSON_AND_ORGANIZATION_ROLE ( 'design_owner' ) ;
#236 = CIRCLE ( 'NONE', #19, 2.138999999999999346 ) ;
#237 = DIRECTION ( 'NONE',  ( 0.0000000000000000000, 1.000000000000000000, 0.0000000000000000000 ) ) ;
#238 = EDGE_CURVE ( 'NONE', #33, #33, #47, .T. ) ;
#239 = ORIENTED_EDGE ( 'NONE', *, *, #39, .F. ) ;
#240 = DIRECTION ( 'NONE',  ( -3.491481338843133355E-15, -4.675352426169391324E-16, -1.000000000000000000 ) ) ;
#241 = FACE_OUTER_BOUND ( 'NONE', #66, .T. ) ;
#242 = PLANE ( 'NONE',  #198 ) ;
#243 = ADVANCED_FACE ( 'NONE', ( #110, #73 ), #44, .T. ) ;
ENDSEC;
END-ISO-10303-21;
