ISO-10303-21;
HEADER;
FILE_DESCRIPTION (( 'STEP AP203' ),
    '1' );
FILE_NAME ('321330.step',
    '2021-11-26T10:02:42',
    ( '' ),
    ( '' ),
    'SwSTEP 2.0',
    'SolidWorks 2019',
    '' );
FILE_SCHEMA (( 'CONFIG_CONTROL_DESIGN' ));
ENDSEC;

DATA;
#1 = DIRECTION ( 'NONE',  ( 0.0000000000000000000, 1.000000000000000000, 0.0000000000000000000 ) ) ;
#2 = EDGE_CURVE ( 'NONE', #228, #228, #101, .T. ) ;
#3 = PLANE ( 'NONE',  #77 ) ;
#4 = AXIS2_PLACEMENT_3D ( 'NONE', #62, #15, #132 ) ;
#5 = CARTESIAN_POINT ( 'NONE',  ( 4.804195790783349032E-14, -1.242750222520724252E-15, 13.75976362049000556 ) ) ;
#6 = CARTESIAN_POINT ( 'NONE',  ( 0.0000000000000000000, 1.903059892324148183, 0.0000000000000000000 ) ) ;
#7 = APPROVAL ( #73, 'UNSPECIFIED' ) ;
#8 = VERTEX_POINT ( 'NONE', #180 ) ;
#9 = APPROVAL_DATE_TIME ( #79, #167 ) ;
#10 = VERTEX_POINT ( 'NONE', #6 ) ;
#11 = APPROVAL_PERSON_ORGANIZATION ( #214, #158, #203 ) ;
#12 = COORDINATED_UNIVERSAL_TIME_OFFSET ( 1, 0, .AHEAD. ) ;
#13 = EDGE_LOOP ( 'NONE', ( #126 ) ) ;
#14 = CONICAL_SURFACE ( 'NONE', #22, 1.999999999999995337, 0.7853981633974516097 ) ;
#15 = DIRECTION ( 'NONE',  ( -3.491481338843133355E-15, 9.031770143711729009E-17, -1.000000000000000000 ) ) ;
#16 = PERSON_AND_ORGANIZATION_ROLE ( 'classification_officer' ) ;
#17 = CARTESIAN_POINT ( 'NONE',  ( 0.0000000000000000000, 0.0000000000000000000, 0.0000000000000000000 ) ) ;
#18 = CONICAL_SURFACE ( 'NONE', #143, 1.903059892324148183, 0.5235987755982979275 ) ;
#19 = DIRECTION ( 'NONE',  ( 3.153425691349006731E-31, 1.000000000000000000, 9.031770143711729009E-17 ) ) ;
#20 = PRODUCT_DEFINITION ( 'UNKNOWN', '', #113, #43 ) ;
#21 = FACE_OUTER_BOUND ( 'NONE', #176, .T. ) ;
#22 = AXIS2_PLACEMENT_3D ( 'NONE', #192, #88, #208 ) ;
#23 = MECHANICAL_CONTEXT ( 'NONE', #105, 'mechanical' ) ;
#24 = CARTESIAN_POINT ( 'NONE',  ( 2.793185071074506684E-13, 1.599999999999987876, 80.00000000000000000 ) ) ;
#25 = FACE_OUTER_BOUND ( 'NONE', #114, .T. ) ;
#26 = CC_DESIGN_PERSON_AND_ORGANIZATION_ASSIGNMENT ( #92, #234, ( #44 ) ) ;
#27 = COORDINATED_UNIVERSAL_TIME_OFFSET ( 1, 0, .AHEAD. ) ;
#28 = EDGE_CURVE ( 'NONE', #100, #100, #109, .T. ) ;
#29 = CC_DESIGN_APPROVAL ( #167, ( #113 ) ) ;
#30 = COORDINATED_UNIVERSAL_TIME_OFFSET ( 1, 0, .AHEAD. ) ;
#31 = EDGE_LOOP ( 'NONE', ( #185 ) ) ;
#32 = EDGE_CURVE ( 'NONE', #8, #8, #178, .T. ) ;
#33 = CALENDAR_DATE ( 2021, 26, 11 ) ;
#34 = DIRECTION ( 'NONE',  ( -3.491481338843133355E-15, 9.031770143711729009E-17, -1.000000000000000000 ) ) ;
#35 = CYLINDRICAL_SURFACE ( 'NONE', #65, 1.999999999999993561 ) ;
#36 = EDGE_LOOP ( 'NONE', ( #117 ) ) ;
#37 = FACE_OUTER_BOUND ( 'NONE', #48, .T. ) ;
#38 = DIRECTION ( 'NONE',  ( 3.491481338843133355E-15, 4.670868247065495047E-16, 1.000000000000000000 ) ) ;
#39 = AXIS2_PLACEMENT_3D ( 'NONE', #189, #206, #177 ) ;
#40 = DIRECTION ( 'NONE',  ( 1.000000000000000000, 0.0000000000000000000, 0.0000000000000000000 ) ) ;
#41 = PRODUCT_DEFINITION_SHAPE ( 'NONE', 'NONE',  #20 ) ;
#42 = MANIFOLD_SOLID_BREP ( 'Corps-Déplacer/Copier1[2]', #223 ) ;
#43 = DESIGN_CONTEXT ( 'detailed design', #174, 'design' ) ;
#44 = PRODUCT ( '321330', '321330', '', ( #23 ) ) ;
#45 = DIRECTION ( 'NONE',  ( -1.630824932082411470E-30, 1.000000000000000000, -4.670868247065495047E-16 ) ) ;
#46 = DIRECTION ( 'NONE',  ( -1.630824932082411470E-30, 1.000000000000000000, -4.670868247065494061E-16 ) ) ;
#47 = PERSON_AND_ORGANIZATION_ROLE ( 'design_supplier' ) ;
#48 = EDGE_LOOP ( 'NONE', ( #53 ) ) ;
#49 = PERSON_AND_ORGANIZATION ( #229, #183 ) ;
#50 = EDGE_LOOP ( 'NONE', ( #215 ) ) ;
#51 = CIRCLE ( 'NONE', #95, 2.133999999999991903 ) ;
#52 =( GEOMETRIC_REPRESENTATION_CONTEXT ( 3 ) GLOBAL_UNCERTAINTY_ASSIGNED_CONTEXT ( ( #108 ) ) GLOBAL_UNIT_ASSIGNED_CONTEXT ( ( #232, #140, #193 ) ) REPRESENTATION_CONTEXT ( 'NONE', 'WORKASPACE' ) );
#53 = ORIENTED_EDGE ( 'NONE', *, *, #237, .T. ) ;
#54 = PERSON_AND_ORGANIZATION ( #229, #183 ) ;
#55 = PERSON_AND_ORGANIZATION_ROLE ( 'creator' ) ;
#56 = SECURITY_CLASSIFICATION ( '', '', #110 ) ;
#57 = FACE_BOUND ( 'NONE', #13, .T. ) ;
#58 = PERSON_AND_ORGANIZATION ( #229, #183 ) ;
#59 = DIRECTION ( 'NONE',  ( 0.0000000000000000000, 1.000000000000000000, 0.0000000000000000000 ) ) ;
#60 = CARTESIAN_POINT ( 'NONE',  ( 1.396592535537256300E-15, 1.868347298826202160E-16, 0.4000000000000009104 ) ) ;
#61 = AXIS2_PLACEMENT_3D ( 'NONE', #84, #186, #1 ) ;
#62 = CARTESIAN_POINT ( 'NONE',  ( 4.804195790783349032E-14, -1.242750222520724252E-15, 13.75976362049000556 ) ) ;
#63 = ADVANCED_FACE ( 'NONE', ( #204 ), #3, .T. ) ;
#64 = DIRECTION ( 'NONE',  ( 1.630824932082411470E-30, -1.000000000000000000, 4.670868247065495047E-16 ) ) ;
#65 = AXIS2_PLACEMENT_3D ( 'NONE', #17, #94, #83 ) ;
#66 = CARTESIAN_POINT ( 'NONE',  ( 4.804195790783349032E-14, 2.133999999999998121, 13.75976362049000556 ) ) ;
#67 = ADVANCED_FACE ( 'NONE', ( #221 ), #205, .T. ) ;
#68 = CARTESIAN_POINT ( 'NONE',  ( 4.885231259955590439E-14, 1.999999999999990452, 13.99185842870425134 ) ) ;
#69 = APPROVAL_STATUS ( 'not_yet_approved' ) ;
#70 = CONICAL_SURFACE ( 'NONE', #226, 2.133999999999999453, 0.5235987755982935976 ) ;
#71 = PRODUCT_RELATED_PRODUCT_CATEGORY ( 'detail', '', ( #44 ) ) ;
#72 = DATE_AND_TIME ( #147, #188 ) ;
#73 = APPROVAL_STATUS ( 'not_yet_approved' ) ;
#74 = EDGE_LOOP ( 'NONE', ( #184 ) ) ;
#75 = ADVANCED_FACE ( 'NONE', ( #37 ), #207, .T. ) ;
#76 = DIRECTION ( 'NONE',  ( -3.491481338843133355E-15, 9.031770143711729009E-17, -1.000000000000000000 ) ) ;
#77 = AXIS2_PLACEMENT_3D ( 'NONE', #133, #38, #64 ) ;
#78 = APPROVAL_PERSON_ORGANIZATION ( #166, #7, #169 ) ;
#79 = DATE_AND_TIME ( #149, #139 ) ;
#80 = CC_DESIGN_PERSON_AND_ORGANIZATION_ASSIGNMENT ( #218, #55, ( #113 ) ) ;
#81 = DIRECTION ( 'NONE',  ( -1.630824932082411470E-30, 1.000000000000000000, -4.670868247065495047E-16 ) ) ;
#82 = FACE_BOUND ( 'NONE', #74, .T. ) ;
#83 = DIRECTION ( 'NONE',  ( 3.153425691349006731E-31, 1.000000000000000000, 9.031770143711729009E-17 ) ) ;
#84 = CARTESIAN_POINT ( 'NONE',  ( 2.779219145719134403E-13, -7.189289034394536528E-15, 79.60000000000000853 ) ) ;
#85 = APPLICATION_PROTOCOL_DEFINITION ( 'international standard', 'config_control_design', 1994, #105 ) ;
#86 = CYLINDRICAL_SURFACE ( 'NONE', #151, 2.133999999999995012 ) ;
#87 = COORDINATED_UNIVERSAL_TIME_OFFSET ( 1, 0, .AHEAD. ) ;
#88 = DIRECTION ( 'NONE',  ( -3.491481338843133355E-15, 9.031770143711729009E-17, -1.000000000000000000 ) ) ;
#89 = EDGE_CURVE ( 'NONE', #196, #196, #104, .T. ) ;
#90 = SHAPE_DEFINITION_REPRESENTATION ( #41, #131 ) ;
#91 = CALENDAR_DATE ( 2021, 26, 11 ) ;
#92 = PERSON_AND_ORGANIZATION ( #229, #183 ) ;
#93 = CARTESIAN_POINT ( 'NONE',  ( 4.804195790783348401E-14, 2.133999999999998121, 13.75976362049000379 ) ) ;
#94 = DIRECTION ( 'NONE',  ( -3.491481338843133355E-15, 9.031770143711729009E-17, -1.000000000000000000 ) ) ;
#95 = AXIS2_PLACEMENT_3D ( 'NONE', #160, #146, #198 ) ;
#96 = CARTESIAN_POINT ( 'NONE',  ( 2.793185071074506684E-13, -7.225416114969383207E-15, 80.00000000000000000 ) ) ;
#97 = DIRECTION ( 'NONE',  ( 3.491481338843133355E-15, -9.031770143711729009E-17, 1.000000000000000000 ) ) ;
#98 = FACE_OUTER_BOUND ( 'NONE', #107, .T. ) ;
#99 = DIRECTION ( 'NONE',  ( 0.0000000000000000000, 0.0000000000000000000, 1.000000000000000000 ) ) ;
#100 = VERTEX_POINT ( 'NONE', #68 ) ;
#101 = CIRCLE ( 'NONE', #138, 2.133999999999997677 ) ;
#102 = CC_DESIGN_DATE_AND_TIME_ASSIGNMENT ( #72, #172, ( #56 ) ) ;
#103 = APPROVAL_DATE_TIME ( #145, #158 ) ;
#104 = CIRCLE ( 'NONE', #61, 1.999999999999995337 ) ;
#105 = APPLICATION_CONTEXT ( 'configuration controlled 3d designs of mechanical parts and assemblies' ) ;
#106 = EDGE_LOOP ( 'NONE', ( #157 ) ) ;
#107 = EDGE_LOOP ( 'NONE', ( #225 ) ) ;
#108 = UNCERTAINTY_MEASURE_WITH_UNIT (LENGTH_MEASURE( 1.000000000000000082E-05 ), #232, 'distance_accuracy_value', 'NONE');
#109 = CIRCLE ( 'NONE', #39, 1.999999999999991784 ) ;
#110 = SECURITY_CLASSIFICATION_LEVEL ( 'unclassified' ) ;
#111 = DIRECTION ( 'NONE',  ( -3.491481338843133355E-15, -4.670868247065495047E-16, -1.000000000000000000 ) ) ;
#112 = DIRECTION ( 'NONE',  ( -3.491481338843133355E-15, 9.031770143711729009E-17, -1.000000000000000000 ) ) ;
#113 = PRODUCT_DEFINITION_FORMATION_WITH_SPECIFIED_SOURCE ( 'ANY', '', #44, .NOT_KNOWN. ) ;
#114 = EDGE_LOOP ( 'NONE', ( #199 ) ) ;
#115 = ADVANCED_FACE ( 'NONE', ( #21, #98 ), #35, .T. ) ;
#116 = ORIENTED_EDGE ( 'NONE', *, *, #32, .F. ) ;
#117 = ORIENTED_EDGE ( 'NONE', *, *, #190, .F. ) ;
#118 = VERTEX_POINT ( 'NONE', #66 ) ;
#119 = CC_DESIGN_PERSON_AND_ORGANIZATION_ASSIGNMENT ( #58, #47, ( #113 ) ) ;
#120 = CLOSED_SHELL ( 'NONE', ( #195, #241, #115, #154, #67 ) ) ;
#121 = APPROVAL_PERSON_ORGANIZATION ( #152, #167, #220 ) ;
#122 = CIRCLE ( 'NONE', #161, 1.599999999999994982 ) ;
#123 = CC_DESIGN_APPROVAL ( #158, ( #56 ) ) ;
#124 = ORIENTED_EDGE ( 'NONE', *, *, #211, .T. ) ;
#125 = MANIFOLD_SOLID_BREP ( 'Corps-Déplacer/Copier1[1]', #120 ) ;
#126 = ORIENTED_EDGE ( 'NONE', *, *, #237, .F. ) ;
#127 = PERSON_AND_ORGANIZATION_ROLE ( 'creator' ) ;
#128 = LOCAL_TIME ( 11, 2, 42.00000000000000000, #30 ) ;
#129 = CARTESIAN_POINT ( 'NONE',  ( 2.793185071074506684E-13, -7.225416114969383207E-15, 80.00000000000000000 ) ) ;
#130 = COORDINATED_UNIVERSAL_TIME_OFFSET ( 1, 0, .AHEAD. ) ;
#131 = ADVANCED_BREP_SHAPE_REPRESENTATION ( '321330', ( #125, #42, #144 ), #52 ) ;
#132 = DIRECTION ( 'NONE',  ( 0.0000000000000000000, 1.000000000000000000, 0.0000000000000000000 ) ) ;
#133 = CARTESIAN_POINT ( 'NONE',  ( 4.804195790783348401E-14, 6.427004298207370908E-15, 13.75976362049000379 ) ) ;
#134 = AXIS2_PLACEMENT_3D ( 'NONE', #96, #97, #175 ) ;
#135 = DIRECTION ( 'NONE',  ( 1.630824932082411470E-30, -1.000000000000000000, 4.670868247065495047E-16 ) ) ;
#136 = CARTESIAN_POINT ( 'NONE',  ( 3.103557519648290244E-30, 4.151907704673497717E-31, 8.888942023320743572E-16 ) ) ;
#137 = CARTESIAN_POINT ( 'NONE',  ( 0.0000000000000000000, 0.0000000000000000000, 0.0000000000000000000 ) ) ;
#138 = AXIS2_PLACEMENT_3D ( 'NONE', #60, #111, #222 ) ;
#139 = LOCAL_TIME ( 11, 2, 42.00000000000000000, #12 ) ;
#140 =( NAMED_UNIT ( * ) PLANE_ANGLE_UNIT ( ) SI_UNIT ( $, .RADIAN. ) );
#141 = CARTESIAN_POINT ( 'NONE',  ( 2.779219145719134403E-13, 1.999999999999988010, 79.60000000000000853 ) ) ;
#142 = CC_DESIGN_DATE_AND_TIME_ASSIGNMENT ( #170, #236, ( #20 ) ) ;
#143 = AXIS2_PLACEMENT_3D ( 'NONE', #136, #219, #135 ) ;
#144 = AXIS2_PLACEMENT_3D ( 'NONE', #137, #99, #40 ) ;
#145 = DATE_AND_TIME ( #163, #150 ) ;
#146 = DIRECTION ( 'NONE',  ( -3.491481338843133355E-15, -4.670868247065495047E-16, -1.000000000000000000 ) ) ;
#147 = CALENDAR_DATE ( 2021, 26, 11 ) ;
#148 = EDGE_LOOP ( 'NONE', ( #235 ) ) ;
#149 = CALENDAR_DATE ( 2021, 26, 11 ) ;
#150 = LOCAL_TIME ( 11, 2, 42.00000000000000000, #87 ) ;
#151 = AXIS2_PLACEMENT_3D ( 'NONE', #182, #179, #46 ) ;
#152 = PERSON_AND_ORGANIZATION ( #229, #183 ) ;
#153 = ORIENTED_EDGE ( 'NONE', *, *, #32, .T. ) ;
#154 = ADVANCED_FACE ( 'NONE', ( #82, #156 ), #70, .T. ) ;
#155 = FACE_OUTER_BOUND ( 'NONE', #191, .T. ) ;
#156 = FACE_OUTER_BOUND ( 'NONE', #165, .T. ) ;
#157 = ORIENTED_EDGE ( 'NONE', *, *, #2, .F. ) ;
#158 = APPROVAL ( #213, 'UNSPECIFIED' ) ;
#159 = DIRECTION ( 'NONE',  ( -3.491481338843133355E-15, -4.670868247065495047E-16, -1.000000000000000000 ) ) ;
#160 = CARTESIAN_POINT ( 'NONE',  ( 4.804195790783349663E-14, 6.427004298207373274E-15, 13.75976362049000734 ) ) ;
#161 = AXIS2_PLACEMENT_3D ( 'NONE', #129, #34, #224 ) ;
#162 = ADVANCED_FACE ( 'NONE', ( #243, #57 ), #18, .T. ) ;
#163 = CALENDAR_DATE ( 2021, 26, 11 ) ;
#164 = CARTESIAN_POINT ( 'NONE',  ( 1.396592535537252948E-15, 2.133999999999997677, 0.3999999999999999112 ) ) ;
#165 = EDGE_LOOP ( 'NONE', ( #116 ) ) ;
#166 = PERSON_AND_ORGANIZATION ( #229, #183 ) ;
#167 = APPROVAL ( #69, 'UNSPECIFIED' ) ;
#168 = LOCAL_TIME ( 11, 2, 42.00000000000000000, #27 ) ;
#169 = APPROVAL_ROLE ( '' ) ;
#170 = DATE_AND_TIME ( #33, #168 ) ;
#171 = CARTESIAN_POINT ( 'NONE',  ( -1.551778759824145122E-30, 1.903059892324148183, -4.444471011660371786E-16 ) ) ;
#172 = DATE_TIME_ROLE ( 'classification_date' ) ;
#173 = FACE_OUTER_BOUND ( 'NONE', #36, .T. ) ;
#174 = APPLICATION_CONTEXT ( 'configuration controlled 3d designs of mechanical parts and assemblies' ) ;
#175 = DIRECTION ( 'NONE',  ( -3.153425691349006731E-31, -1.000000000000000000, -9.031770143711729009E-17 ) ) ;
#176 = EDGE_LOOP ( 'NONE', ( #238 ) ) ;
#177 = DIRECTION ( 'NONE',  ( 0.0000000000000000000, 1.000000000000000000, 0.0000000000000000000 ) ) ;
#178 = CIRCLE ( 'NONE', #4, 2.133999999999999453 ) ;
#179 = DIRECTION ( 'NONE',  ( -3.491481338843133355E-15, -4.670868247065495047E-16, -1.000000000000000000 ) ) ;
#180 = CARTESIAN_POINT ( 'NONE',  ( 4.804195790783349032E-14, 2.133999999999998121, 13.75976362049000556 ) ) ;
#181 = CARTESIAN_POINT ( 'NONE',  ( 3.103557519648290244E-30, 4.151907704673497717E-31, 8.888942023320743572E-16 ) ) ;
#182 = CARTESIAN_POINT ( 'NONE',  ( 0.0000000000000000000, 0.0000000000000000000, 0.0000000000000000000 ) ) ;
#183 = ORGANIZATION ( 'UNSPECIFIED', 'UNSPECIFIED', '' ) ;
#184 = ORIENTED_EDGE ( 'NONE', *, *, #28, .T. ) ;
#185 = ORIENTED_EDGE ( 'NONE', *, *, #2, .T. ) ;
#186 = DIRECTION ( 'NONE',  ( -3.491481338843133355E-15, 9.031770143711729009E-17, -1.000000000000000000 ) ) ;
#187 = PLANE ( 'NONE',  #134 ) ;
#188 = LOCAL_TIME ( 11, 2, 42.00000000000000000, #130 ) ;
#189 = CARTESIAN_POINT ( 'NONE',  ( 4.885231259955590439E-14, -1.263712492114123682E-15, 13.99185842870425134 ) ) ;
#190 = EDGE_CURVE ( 'NONE', #194, #194, #122, .T. ) ;
#191 = EDGE_LOOP ( 'NONE', ( #124 ) ) ;
#192 = CARTESIAN_POINT ( 'NONE',  ( 2.779219145719134403E-13, -7.189289034394536528E-15, 79.60000000000000853 ) ) ;
#193 =( NAMED_UNIT ( * ) SI_UNIT ( $, .STERADIAN. ) SOLID_ANGLE_UNIT ( ) );
#194 = VERTEX_POINT ( 'NONE', #24 ) ;
#195 = ADVANCED_FACE ( 'NONE', ( #173 ), #187, .T. ) ;
#196 = VERTEX_POINT ( 'NONE', #141 ) ;
#197 = CC_DESIGN_SECURITY_CLASSIFICATION ( #56, ( #113 ) ) ;
#198 = DIRECTION ( 'NONE',  ( -2.887992418949943004E-30, 1.000000000000000000, -8.128975988644862926E-16 ) ) ;
#199 = ORIENTED_EDGE ( 'NONE', *, *, #89, .F. ) ;
#200 = EDGE_LOOP ( 'NONE', ( #153 ) ) ;
#201 = ADVANCED_FACE ( 'NONE', ( #155, #212 ), #86, .T. ) ;
#202 = APPROVAL_DATE_TIME ( #240, #7 ) ;
#203 = APPROVAL_ROLE ( '' ) ;
#204 = FACE_OUTER_BOUND ( 'NONE', #50, .T. ) ;
#205 = PLANE ( 'NONE',  #209 ) ;
#206 = DIRECTION ( 'NONE',  ( -3.491481338843133355E-15, 9.031770143711729009E-17, -1.000000000000000000 ) ) ;
#207 = PLANE ( 'NONE',  #233 ) ;
#208 = DIRECTION ( 'NONE',  ( 0.0000000000000000000, 1.000000000000000000, 0.0000000000000000000 ) ) ;
#209 = AXIS2_PLACEMENT_3D ( 'NONE', #93, #112, #19 ) ;
#210 = CC_DESIGN_APPROVAL ( #7, ( #20 ) ) ;
#211 = EDGE_CURVE ( 'NONE', #118, #118, #51, .T. ) ;
#212 = FACE_OUTER_BOUND ( 'NONE', #106, .T. ) ;
#213 = APPROVAL_STATUS ( 'not_yet_approved' ) ;
#214 = PERSON_AND_ORGANIZATION ( #229, #183 ) ;
#215 = ORIENTED_EDGE ( 'NONE', *, *, #211, .F. ) ;
#216 = APPLICATION_PROTOCOL_DEFINITION ( 'international standard', 'config_control_design', 1994, #174 ) ;
#217 = CC_DESIGN_PERSON_AND_ORGANIZATION_ASSIGNMENT ( #54, #127, ( #20 ) ) ;
#218 = PERSON_AND_ORGANIZATION ( #229, #183 ) ;
#219 = DIRECTION ( 'NONE',  ( 3.491481338843133355E-15, 4.670868247065495047E-16, 1.000000000000000000 ) ) ;
#220 = APPROVAL_ROLE ( '' ) ;
#221 = FACE_OUTER_BOUND ( 'NONE', #200, .T. ) ;
#222 = DIRECTION ( 'NONE',  ( -1.624495735659338648E-30, 1.000000000000000000, -4.572548993612723317E-16 ) ) ;
#223 = CLOSED_SHELL ( 'NONE', ( #63, #201, #162, #75 ) ) ;
#224 = DIRECTION ( 'NONE',  ( 0.0000000000000000000, 1.000000000000000000, 0.0000000000000000000 ) ) ;
#225 = ORIENTED_EDGE ( 'NONE', *, *, #28, .F. ) ;
#226 = AXIS2_PLACEMENT_3D ( 'NONE', #5, #76, #59 ) ;
#227 = AXIS2_PLACEMENT_3D ( 'NONE', #181, #159, #45 ) ;
#228 = VERTEX_POINT ( 'NONE', #164 ) ;
#229 = PERSON ( 'UNSPECIFIED', 'UNSPECIFIED', 'UNSPECIFIED', ('UNSPECIFIED'), ('UNSPECIFIED'), ('UNSPECIFIED') ) ;
#230 = FACE_BOUND ( 'NONE', #148, .T. ) ;
#231 = CC_DESIGN_PERSON_AND_ORGANIZATION_ASSIGNMENT ( #49, #16, ( #56 ) ) ;
#232 =( LENGTH_UNIT ( ) NAMED_UNIT ( * ) SI_UNIT ( .MILLI., .METRE. ) );
#233 = AXIS2_PLACEMENT_3D ( 'NONE', #171, #242, #81 ) ;
#234 = PERSON_AND_ORGANIZATION_ROLE ( 'design_owner' ) ;
#235 = ORIENTED_EDGE ( 'NONE', *, *, #190, .T. ) ;
#236 = DATE_TIME_ROLE ( 'creation_date' ) ;
#237 = EDGE_CURVE ( 'NONE', #10, #10, #239, .T. ) ;
#238 = ORIENTED_EDGE ( 'NONE', *, *, #89, .T. ) ;
#239 = CIRCLE ( 'NONE', #227, 1.903059892324148183 ) ;
#240 = DATE_AND_TIME ( #91, #128 ) ;
#241 = ADVANCED_FACE ( 'NONE', ( #230, #25 ), #14, .T. ) ;
#242 = DIRECTION ( 'NONE',  ( -3.491481338843133355E-15, -4.670868247065495047E-16, -1.000000000000000000 ) ) ;
#243 = FACE_OUTER_BOUND ( 'NONE', #31, .T. ) ;
ENDSEC;
END-ISO-10303-21;
