ISO-10303-21;
HEADER;
FILE_DESCRIPTION (( 'STEP AP203' ),
    '1' );
FILE_NAME ('321329.step',
    '2021-11-26T10:02:41',
    ( '' ),
    ( '' ),
    'SwSTEP 2.0',
    'SolidWorks 2019',
    '' );
FILE_SCHEMA (( 'CONFIG_CONTROL_DESIGN' ));
ENDSEC;

DATA;
#1 = PERSON_AND_ORGANIZATION ( #203, #153 ) ;
#2 = CONICAL_SURFACE ( 'NONE', #112, 1.898059892324147846, 0.5235987755982979275 ) ;
#3 = FACE_BOUND ( 'NONE', #168, .T. ) ;
#4 = APPROVAL_PERSON_ORGANIZATION ( #1, #176, #243 ) ;
#5 = ORIENTED_EDGE ( 'NONE', *, *, #221, .T. ) ;
#6 =( GEOMETRIC_REPRESENTATION_CONTEXT ( 3 ) GLOBAL_UNCERTAINTY_ASSIGNED_CONTEXT ( ( #107 ) ) GLOBAL_UNIT_ASSIGNED_CONTEXT ( ( #116, #95, #205 ) ) REPRESENTATION_CONTEXT ( 'NONE', 'WORKASPACE' ) );
#7 = CARTESIAN_POINT ( 'NONE',  ( 4.885231259955590439E-14, 1.999999999999990452, 13.99185842870425134 ) ) ;
#8 = EDGE_LOOP ( 'NONE', ( #33 ) ) ;
#9 = CARTESIAN_POINT ( 'NONE',  ( 0.0000000000000000000, 0.0000000000000000000, 0.0000000000000000000 ) ) ;
#10 = ADVANCED_BREP_SHAPE_REPRESENTATION ( '321329', ( #54, #130, #193 ), #6 ) ;
#11 = DIRECTION ( 'NONE',  ( 0.0000000000000000000, 1.000000000000000000, 0.0000000000000000000 ) ) ;
#12 = DESIGN_CONTEXT ( 'detailed design', #52, 'design' ) ;
#13 = PLANE ( 'NONE',  #36 ) ;
#14 = DIRECTION ( 'NONE',  ( -3.491481338843133355E-15, 9.031770143711729009E-17, -1.000000000000000000 ) ) ;
#15 = PLANE ( 'NONE',  #74 ) ;
#16 = APPROVAL_DATE_TIME ( #185, #176 ) ;
#17 = AXIS2_PLACEMENT_3D ( 'NONE', #9, #49, #208 ) ;
#18 = PERSON_AND_ORGANIZATION_ROLE ( 'creator' ) ;
#19 = COORDINATED_UNIVERSAL_TIME_OFFSET ( 1, 0, .AHEAD. ) ;
#20 = SECURITY_CLASSIFICATION ( '', '', #128 ) ;
#21 = ADVANCED_FACE ( 'NONE', ( #53 ), #15, .T. ) ;
#22 = SHAPE_DEFINITION_REPRESENTATION ( #142, #10 ) ;
#23 = CIRCLE ( 'NONE', #172, 2.128999999999997783 ) ;
#24 = CC_DESIGN_APPROVAL ( #176, ( #189 ) ) ;
#25 = VERTEX_POINT ( 'NONE', #99 ) ;
#26 = PERSON_AND_ORGANIZATION ( #203, #153 ) ;
#27 = ORIENTED_EDGE ( 'NONE', *, *, #122, .T. ) ;
#28 = PRODUCT ( '321329', '321329', '', ( #97 ) ) ;
#29 = PERSON_AND_ORGANIZATION ( #203, #153 ) ;
#30 = DIRECTION ( 'NONE',  ( 1.629261258875645753E-30, -1.000000000000000000, 4.666389709003813961E-16 ) ) ;
#31 = EDGE_CURVE ( 'NONE', #82, #82, #146, .T. ) ;
#32 = CARTESIAN_POINT ( 'NONE',  ( 2.793185071074506684E-13, -7.225416114969383207E-15, 80.00000000000000000 ) ) ;
#33 = ORIENTED_EDGE ( 'NONE', *, *, #110, .F. ) ;
#34 = DATE_AND_TIME ( #197, #75 ) ;
#35 = ADVANCED_FACE ( 'NONE', ( #87, #69 ), #202, .T. ) ;
#36 = AXIS2_PLACEMENT_3D ( 'NONE', #192, #73, #236 ) ;
#37 = CALENDAR_DATE ( 2021, 26, 11 ) ;
#38 = CARTESIAN_POINT ( 'NONE',  ( 4.807219502319625905E-14, 2.128999999999998227, 13.76842387452785132 ) ) ;
#39 = APPLICATION_PROTOCOL_DEFINITION ( 'international standard', 'config_control_design', 1994, #149 ) ;
#40 = VERTEX_POINT ( 'NONE', #47 ) ;
#41 = EDGE_LOOP ( 'NONE', ( #147 ) ) ;
#42 = FACE_OUTER_BOUND ( 'NONE', #43, .T. ) ;
#43 = EDGE_LOOP ( 'NONE', ( #111 ) ) ;
#44 = DIRECTION ( 'NONE',  ( -3.491481338843133355E-15, 9.031770143711729009E-17, -1.000000000000000000 ) ) ;
#45 = CIRCLE ( 'NONE', #102, 2.128999999999999559 ) ;
#46 = CC_DESIGN_APPROVAL ( #79, ( #20 ) ) ;
#47 = CARTESIAN_POINT ( 'NONE',  ( 1.396592535537252948E-15, 2.128999999999997783, 0.3999999999999999112 ) ) ;
#48 = CARTESIAN_POINT ( 'NONE',  ( 3.092435449589413761E-30, 4.133062032204366332E-31, 8.857087148614291707E-16 ) ) ;
#49 = DIRECTION ( 'NONE',  ( -3.491481338843133355E-15, -4.666389709003813961E-16, -1.000000000000000000 ) ) ;
#50 = EDGE_LOOP ( 'NONE', ( #5 ) ) ;
#51 = ORIENTED_EDGE ( 'NONE', *, *, #122, .F. ) ;
#52 = APPLICATION_CONTEXT ( 'configuration controlled 3d designs of mechanical parts and assemblies' ) ;
#53 = FACE_OUTER_BOUND ( 'NONE', #145, .T. ) ;
#54 = MANIFOLD_SOLID_BREP ( 'Corps-Déplacer/Copier1[1]', #93 ) ;
#55 = PERSON_AND_ORGANIZATION_ROLE ( 'design_supplier' ) ;
#56 = ADVANCED_FACE ( 'NONE', ( #228 ), #211, .T. ) ;
#57 = COORDINATED_UNIVERSAL_TIME_OFFSET ( 1, 0, .AHEAD. ) ;
#58 = CARTESIAN_POINT ( 'NONE',  ( 4.807219502319625905E-14, -1.243532396759284140E-15, 13.76842387452785132 ) ) ;
#59 = AXIS2_PLACEMENT_3D ( 'NONE', #183, #233, #213 ) ;
#60 = DIRECTION ( 'NONE',  ( 1.000000000000000000, 0.0000000000000000000, 0.0000000000000000000 ) ) ;
#61 = DIRECTION ( 'NONE',  ( -3.491481338843133355E-15, -4.666389709003813961E-16, -1.000000000000000000 ) ) ;
#62 = AXIS2_PLACEMENT_3D ( 'NONE', #103, #144, #30 ) ;
#63 = LOCAL_TIME ( 11, 2, 41.00000000000000000, #78 ) ;
#64 = ADVANCED_FACE ( 'NONE', ( #216, #136 ), #161, .T. ) ;
#65 = EDGE_LOOP ( 'NONE', ( #207 ) ) ;
#66 = DIRECTION ( 'NONE',  ( -3.491481338843133355E-15, 9.031770143711729009E-17, -1.000000000000000000 ) ) ;
#67 = PERSON_AND_ORGANIZATION ( #203, #153 ) ;
#68 = DIRECTION ( 'NONE',  ( -1.628310897086438822E-30, 1.000000000000000000, -4.583287718351127461E-16 ) ) ;
#69 = FACE_OUTER_BOUND ( 'NONE', #220, .T. ) ;
#70 = VERTEX_POINT ( 'NONE', #38 ) ;
#71 = DIRECTION ( 'NONE',  ( -3.153425691349006731E-31, -1.000000000000000000, -9.031770143711729009E-17 ) ) ;
#72 = ADVANCED_FACE ( 'NONE', ( #215 ), #13, .T. ) ;
#73 = DIRECTION ( 'NONE',  ( -3.491481338843133355E-15, 9.031770143711729009E-17, -1.000000000000000000 ) ) ;
#74 = AXIS2_PLACEMENT_3D ( 'NONE', #83, #61, #135 ) ;
#75 = LOCAL_TIME ( 11, 2, 41.00000000000000000, #170 ) ;
#76 = EDGE_LOOP ( 'NONE', ( #196 ) ) ;
#77 = PERSON_AND_ORGANIZATION ( #203, #153 ) ;
#78 = COORDINATED_UNIVERSAL_TIME_OFFSET ( 1, 0, .AHEAD. ) ;
#79 = APPROVAL ( #201, 'UNSPECIFIED' ) ;
#80 = AXIS2_PLACEMENT_3D ( 'NONE', #106, #108, #86 ) ;
#81 = LOCAL_TIME ( 11, 2, 41.00000000000000000, #57 ) ;
#82 = VERTEX_POINT ( 'NONE', #162 ) ;
#83 = CARTESIAN_POINT ( 'NONE',  ( -1.546217724794706880E-30, 1.898059892324147846, -4.428543574307145854E-16 ) ) ;
#84 = ORIENTED_EDGE ( 'NONE', *, *, #171, .T. ) ;
#85 = CYLINDRICAL_SURFACE ( 'NONE', #225, 1.999999999999993561 ) ;
#86 = DIRECTION ( 'NONE',  ( 0.0000000000000000000, 1.000000000000000000, 0.0000000000000000000 ) ) ;
#87 = FACE_BOUND ( 'NONE', #50, .T. ) ;
#88 = DIRECTION ( 'NONE',  ( 0.0000000000000000000, 1.000000000000000000, 0.0000000000000000000 ) ) ;
#89 = CLOSED_SHELL ( 'NONE', ( #214, #64, #232, #21 ) ) ;
#90 = CARTESIAN_POINT ( 'NONE',  ( 0.0000000000000000000, 0.0000000000000000000, 0.0000000000000000000 ) ) ;
#91 = AXIS2_PLACEMENT_3D ( 'NONE', #177, #66, #88 ) ;
#92 = EDGE_CURVE ( 'NONE', #70, #70, #45, .T. ) ;
#93 = CLOSED_SHELL ( 'NONE', ( #56, #105, #115, #35, #72 ) ) ;
#94 = CIRCLE ( 'NONE', #234, 1.898059892324147846 ) ;
#95 =( NAMED_UNIT ( * ) PLANE_ANGLE_UNIT ( ) SI_UNIT ( $, .RADIAN. ) );
#96 = CIRCLE ( 'NONE', #80, 1.999999999999991784 ) ;
#97 = MECHANICAL_CONTEXT ( 'NONE', #149, 'mechanical' ) ;
#98 = CC_DESIGN_DATE_AND_TIME_ASSIGNMENT ( #34, #123, ( #169 ) ) ;
#99 = CARTESIAN_POINT ( 'NONE',  ( 0.0000000000000000000, 1.898059892324147846, 0.0000000000000000000 ) ) ;
#100 = ORIENTED_EDGE ( 'NONE', *, *, #31, .F. ) ;
#101 = PERSON_AND_ORGANIZATION_ROLE ( 'design_owner' ) ;
#102 = AXIS2_PLACEMENT_3D ( 'NONE', #179, #44, #118 ) ;
#103 = CARTESIAN_POINT ( 'NONE',  ( 4.807219502319626536E-14, 6.424883147729918453E-15, 13.76842387452785310 ) ) ;
#104 = DIRECTION ( 'NONE',  ( 3.153425691349006731E-31, 1.000000000000000000, 9.031770143711729009E-17 ) ) ;
#105 = ADVANCED_FACE ( 'NONE', ( #141, #164 ), #223, .T. ) ;
#106 = CARTESIAN_POINT ( 'NONE',  ( 4.885231259955590439E-14, -1.263712492114123682E-15, 13.99185842870425134 ) ) ;
#107 = UNCERTAINTY_MEASURE_WITH_UNIT (LENGTH_MEASURE( 1.000000000000000082E-05 ), #116, 'distance_accuracy_value', 'NONE');
#108 = DIRECTION ( 'NONE',  ( -3.491481338843133355E-15, 9.031770143711729009E-17, -1.000000000000000000 ) ) ;
#109 = DIRECTION ( 'NONE',  ( 0.0000000000000000000, 1.000000000000000000, 0.0000000000000000000 ) ) ;
#110 = EDGE_CURVE ( 'NONE', #155, #155, #188, .T. ) ;
#111 = ORIENTED_EDGE ( 'NONE', *, *, #221, .F. ) ;
#112 = AXIS2_PLACEMENT_3D ( 'NONE', #212, #178, #175 ) ;
#113 = PERSON_AND_ORGANIZATION ( #203, #153 ) ;
#114 = APPROVAL_ROLE ( '' ) ;
#115 = ADVANCED_FACE ( 'NONE', ( #230, #42 ), #85, .T. ) ;
#116 =( LENGTH_UNIT ( ) NAMED_UNIT ( * ) SI_UNIT ( .MILLI., .METRE. ) );
#117 = AXIS2_PLACEMENT_3D ( 'NONE', #167, #14, #239 ) ;
#118 = DIRECTION ( 'NONE',  ( 0.0000000000000000000, 1.000000000000000000, 0.0000000000000000000 ) ) ;
#119 = DIRECTION ( 'NONE',  ( -3.491481338843133355E-15, -4.666389709003813961E-16, -1.000000000000000000 ) ) ;
#120 = FACE_OUTER_BOUND ( 'NONE', #8, .T. ) ;
#121 = EDGE_LOOP ( 'NONE', ( #217 ) ) ;
#122 = EDGE_CURVE ( 'NONE', #25, #25, #94, .T. ) ;
#123 = DATE_TIME_ROLE ( 'creation_date' ) ;
#124 = ORIENTED_EDGE ( 'NONE', *, *, #204, .F. ) ;
#125 = PERSON_AND_ORGANIZATION ( #203, #153 ) ;
#126 = CIRCLE ( 'NONE', #91, 1.599999999999994982 ) ;
#127 = LOCAL_TIME ( 11, 2, 41.00000000000000000, #19 ) ;
#128 = SECURITY_CLASSIFICATION_LEVEL ( 'unclassified' ) ;
#129 = ORIENTED_EDGE ( 'NONE', *, *, #31, .T. ) ;
#130 = MANIFOLD_SOLID_BREP ( 'Corps-Déplacer/Copier1[2]', #89 ) ;
#131 = PRODUCT_RELATED_PRODUCT_CATEGORY ( 'detail', '', ( #28 ) ) ;
#132 = APPROVAL_PERSON_ORGANIZATION ( #26, #79, #227 ) ;
#133 = DATE_TIME_ROLE ( 'classification_date' ) ;
#134 = EDGE_LOOP ( 'NONE', ( #100 ) ) ;
#135 = DIRECTION ( 'NONE',  ( -1.629261258875645753E-30, 1.000000000000000000, -4.666389709003813961E-16 ) ) ;
#136 = FACE_OUTER_BOUND ( 'NONE', #137, .T. ) ;
#137 = EDGE_LOOP ( 'NONE', ( #124 ) ) ;
#138 = CC_DESIGN_PERSON_AND_ORGANIZATION_ASSIGNMENT ( #77, #148, ( #189 ) ) ;
#139 = DIRECTION ( 'NONE',  ( -3.491481338843133355E-15, -4.666389709003813961E-16, -1.000000000000000000 ) ) ;
#140 = VERTEX_POINT ( 'NONE', #209 ) ;
#141 = FACE_BOUND ( 'NONE', #165, .T. ) ;
#142 = PRODUCT_DEFINITION_SHAPE ( 'NONE', 'NONE',  #169 ) ;
#143 = DIRECTION ( 'NONE',  ( 3.491481338843133355E-15, -9.031770143711729009E-17, 1.000000000000000000 ) ) ;
#144 = DIRECTION ( 'NONE',  ( 3.491481338843133355E-15, 4.666389709003813961E-16, 1.000000000000000000 ) ) ;
#145 = EDGE_LOOP ( 'NONE', ( #27 ) ) ;
#146 = CIRCLE ( 'NONE', #117, 1.999999999999995337 ) ;
#147 = ORIENTED_EDGE ( 'NONE', *, *, #204, .T. ) ;
#148 = PERSON_AND_ORGANIZATION_ROLE ( 'creator' ) ;
#149 = APPLICATION_CONTEXT ( 'configuration controlled 3d designs of mechanical parts and assemblies' ) ;
#150 = CALENDAR_DATE ( 2021, 26, 11 ) ;
#151 = CALENDAR_DATE ( 2021, 26, 11 ) ;
#152 = AXIS2_PLACEMENT_3D ( 'NONE', #32, #143, #71 ) ;
#153 = ORGANIZATION ( 'UNSPECIFIED', 'UNSPECIFIED', '' ) ;
#154 = DATE_AND_TIME ( #37, #81 ) ;
#155 = VERTEX_POINT ( 'NONE', #231 ) ;
#156 = ORIENTED_EDGE ( 'NONE', *, *, #92, .F. ) ;
#157 = CC_DESIGN_APPROVAL ( #173, ( #169 ) ) ;
#158 = DIRECTION ( 'NONE',  ( -1.629261258875645753E-30, 1.000000000000000000, -4.666389709003814947E-16 ) ) ;
#159 = CC_DESIGN_PERSON_AND_ORGANIZATION_ASSIGNMENT ( #222, #55, ( #189 ) ) ;
#160 = APPLICATION_PROTOCOL_DEFINITION ( 'international standard', 'config_control_design', 1994, #52 ) ;
#161 = CYLINDRICAL_SURFACE ( 'NONE', #17, 2.128999999999994674 ) ;
#162 = CARTESIAN_POINT ( 'NONE',  ( 2.779219145719134403E-13, 1.999999999999988010, 79.60000000000000853 ) ) ;
#163 = DIRECTION ( 'NONE',  ( -3.491481338843133355E-15, 9.031770143711729009E-17, -1.000000000000000000 ) ) ;
#164 = FACE_OUTER_BOUND ( 'NONE', #134, .T. ) ;
#165 = EDGE_LOOP ( 'NONE', ( #84 ) ) ;
#166 = CALENDAR_DATE ( 2021, 26, 11 ) ;
#167 = CARTESIAN_POINT ( 'NONE',  ( 2.779219145719134403E-13, -7.189289034394536528E-15, 79.60000000000000853 ) ) ;
#168 = EDGE_LOOP ( 'NONE', ( #51 ) ) ;
#169 = PRODUCT_DEFINITION ( 'UNKNOWN', '', #189, #12 ) ;
#170 = COORDINATED_UNIVERSAL_TIME_OFFSET ( 1, 0, .AHEAD. ) ;
#171 = EDGE_CURVE ( 'NONE', #140, #140, #126, .T. ) ;
#172 = AXIS2_PLACEMENT_3D ( 'NONE', #190, #139, #68 ) ;
#173 = APPROVAL ( #241, 'UNSPECIFIED' ) ;
#174 = DATE_AND_TIME ( #151, #127 ) ;
#175 = DIRECTION ( 'NONE',  ( 1.629261258875645753E-30, -1.000000000000000000, 4.666389709003814947E-16 ) ) ;
#176 = APPROVAL ( #195, 'UNSPECIFIED' ) ;
#177 = CARTESIAN_POINT ( 'NONE',  ( 2.793185071074506684E-13, -7.225416114969383207E-15, 80.00000000000000000 ) ) ;
#178 = DIRECTION ( 'NONE',  ( 3.491481338843133355E-15, 4.666389709003813961E-16, 1.000000000000000000 ) ) ;
#179 = CARTESIAN_POINT ( 'NONE',  ( 4.807219502319625905E-14, -1.243532396759284140E-15, 13.76842387452785132 ) ) ;
#180 = DIRECTION ( 'NONE',  ( -3.491481338843133355E-15, 9.031770143711729009E-17, -1.000000000000000000 ) ) ;
#181 = APPROVAL_PERSON_ORGANIZATION ( #67, #173, #114 ) ;
#182 = FACE_OUTER_BOUND ( 'NONE', #41, .T. ) ;
#183 = CARTESIAN_POINT ( 'NONE',  ( 4.807219502319626536E-14, 6.424883147729919242E-15, 13.76842387452785310 ) ) ;
#184 = CC_DESIGN_PERSON_AND_ORGANIZATION_ASSIGNMENT ( #113, #200, ( #20 ) ) ;
#185 = DATE_AND_TIME ( #150, #63 ) ;
#186 = APPROVAL_DATE_TIME ( #154, #79 ) ;
#187 = VERTEX_POINT ( 'NONE', #7 ) ;
#188 = CIRCLE ( 'NONE', #59, 2.128999999999991566 ) ;
#189 = PRODUCT_DEFINITION_FORMATION_WITH_SPECIFIED_SOURCE ( 'ANY', '', #28, .NOT_KNOWN. ) ;
#190 = CARTESIAN_POINT ( 'NONE',  ( 1.396592535537256300E-15, 1.866555883601529676E-16, 0.4000000000000009104 ) ) ;
#191 = DIRECTION ( 'NONE',  ( -3.491481338843133355E-15, 9.031770143711729009E-17, -1.000000000000000000 ) ) ;
#192 = CARTESIAN_POINT ( 'NONE',  ( 4.807219502319626536E-14, 2.128999999999998227, 13.76842387452785310 ) ) ;
#193 = AXIS2_PLACEMENT_3D ( 'NONE', #229, #206, #60 ) ;
#194 = CARTESIAN_POINT ( 'NONE',  ( 2.779219145719134403E-13, -7.189289034394536528E-15, 79.60000000000000853 ) ) ;
#195 = APPROVAL_STATUS ( 'not_yet_approved' ) ;
#196 = ORIENTED_EDGE ( 'NONE', *, *, #92, .T. ) ;
#197 = CALENDAR_DATE ( 2021, 26, 11 ) ;
#198 = AXIS2_PLACEMENT_3D ( 'NONE', #58, #180, #11 ) ;
#199 = CC_DESIGN_DATE_AND_TIME_ASSIGNMENT ( #174, #133, ( #20 ) ) ;
#200 = PERSON_AND_ORGANIZATION_ROLE ( 'classification_officer' ) ;
#201 = APPROVAL_STATUS ( 'not_yet_approved' ) ;
#202 = CONICAL_SURFACE ( 'NONE', #198, 2.128999999999999559, 0.5235987755982941527 ) ;
#203 = PERSON ( 'UNSPECIFIED', 'UNSPECIFIED', 'UNSPECIFIED', ('UNSPECIFIED'), ('UNSPECIFIED'), ('UNSPECIFIED') ) ;
#204 = EDGE_CURVE ( 'NONE', #40, #40, #23, .T. ) ;
#205 =( NAMED_UNIT ( * ) SI_UNIT ( $, .STERADIAN. ) SOLID_ANGLE_UNIT ( ) );
#206 = DIRECTION ( 'NONE',  ( 0.0000000000000000000, 0.0000000000000000000, 1.000000000000000000 ) ) ;
#207 = ORIENTED_EDGE ( 'NONE', *, *, #171, .F. ) ;
#208 = DIRECTION ( 'NONE',  ( -1.629261258875645753E-30, 1.000000000000000000, -4.666389709003813961E-16 ) ) ;
#209 = CARTESIAN_POINT ( 'NONE',  ( 2.793185071074506684E-13, 1.599999999999987876, 80.00000000000000000 ) ) ;
#210 = EDGE_LOOP ( 'NONE', ( #129 ) ) ;
#211 = PLANE ( 'NONE',  #152 ) ;
#212 = CARTESIAN_POINT ( 'NONE',  ( 3.092435449589413761E-30, 4.133062032204366332E-31, 8.857087148614291707E-16 ) ) ;
#213 = DIRECTION ( 'NONE',  ( -2.894774928153677502E-30, 1.000000000000000000, -8.148067054846472705E-16 ) ) ;
#214 = ADVANCED_FACE ( 'NONE', ( #120 ), #237, .T. ) ;
#215 = FACE_OUTER_BOUND ( 'NONE', #76, .T. ) ;
#216 = FACE_OUTER_BOUND ( 'NONE', #121, .T. ) ;
#217 = ORIENTED_EDGE ( 'NONE', *, *, #110, .T. ) ;
#218 = CC_DESIGN_PERSON_AND_ORGANIZATION_ASSIGNMENT ( #29, #101, ( #28 ) ) ;
#219 = APPROVAL_DATE_TIME ( #238, #173 ) ;
#220 = EDGE_LOOP ( 'NONE', ( #156 ) ) ;
#221 = EDGE_CURVE ( 'NONE', #187, #187, #96, .T. ) ;
#222 = PERSON_AND_ORGANIZATION ( #203, #153 ) ;
#223 = CONICAL_SURFACE ( 'NONE', #240, 1.999999999999995337, 0.7853981633974516097 ) ;
#224 = CC_DESIGN_PERSON_AND_ORGANIZATION_ASSIGNMENT ( #125, #18, ( #169 ) ) ;
#225 = AXIS2_PLACEMENT_3D ( 'NONE', #90, #191, #104 ) ;
#226 = COORDINATED_UNIVERSAL_TIME_OFFSET ( 1, 0, .AHEAD. ) ;
#227 = APPROVAL_ROLE ( '' ) ;
#228 = FACE_OUTER_BOUND ( 'NONE', #65, .T. ) ;
#229 = CARTESIAN_POINT ( 'NONE',  ( 0.0000000000000000000, 0.0000000000000000000, 0.0000000000000000000 ) ) ;
#230 = FACE_OUTER_BOUND ( 'NONE', #210, .T. ) ;
#231 = CARTESIAN_POINT ( 'NONE',  ( 4.807219502319625905E-14, 2.128999999999998227, 13.76842387452785132 ) ) ;
#232 = ADVANCED_FACE ( 'NONE', ( #182, #3 ), #2, .T. ) ;
#233 = DIRECTION ( 'NONE',  ( -3.491481338843133355E-15, -4.666389709003813961E-16, -1.000000000000000000 ) ) ;
#234 = AXIS2_PLACEMENT_3D ( 'NONE', #48, #119, #158 ) ;
#235 = LOCAL_TIME ( 11, 2, 41.00000000000000000, #226 ) ;
#236 = DIRECTION ( 'NONE',  ( 3.153425691349006731E-31, 1.000000000000000000, 9.031770143711729009E-17 ) ) ;
#237 = PLANE ( 'NONE',  #62 ) ;
#238 = DATE_AND_TIME ( #166, #235 ) ;
#239 = DIRECTION ( 'NONE',  ( 0.0000000000000000000, 1.000000000000000000, 0.0000000000000000000 ) ) ;
#240 = AXIS2_PLACEMENT_3D ( 'NONE', #194, #163, #109 ) ;
#241 = APPROVAL_STATUS ( 'not_yet_approved' ) ;
#242 = CC_DESIGN_SECURITY_CLASSIFICATION ( #20, ( #189 ) ) ;
#243 = APPROVAL_ROLE ( '' ) ;
ENDSEC;
END-ISO-10303-21;
