ISO-10303-21;
HEADER;
FILE_DESCRIPTION (( 'STEP AP203' ),
    '1' );
FILE_NAME ('321328.step',
    '2021-11-26T10:02:41',
    ( '' ),
    ( '' ),
    'SwSTEP 2.0',
    'SolidWorks 2019',
    '' );
FILE_SCHEMA (( 'CONFIG_CONTROL_DESIGN' ));
ENDSEC;

DATA;
#1 = DIRECTION ( 'NONE',  ( -1.627699551514059774E-30, 1.000000000000000000, -4.661916801346507483E-16 ) ) ;
#2 = FACE_OUTER_BOUND ( 'NONE', #198, .T. ) ;
#3 = CONICAL_SURFACE ( 'NONE', #97, 1.893059892324148841, 0.5235987755982979275 ) ;
#4 = LOCAL_TIME ( 11, 2, 41.00000000000000000, #27 ) ;
#5 = ORIENTED_EDGE ( 'NONE', *, *, #93, .F. ) ;
#6 = FACE_OUTER_BOUND ( 'NONE', #186, .T. ) ;
#7 = AXIS2_PLACEMENT_3D ( 'NONE', #187, #15, #236 ) ;
#8 = CARTESIAN_POINT ( 'NONE',  ( 4.885231259955590439E-14, 1.999999999999990452, 13.99185842870425134 ) ) ;
#9 = APPROVAL_ROLE ( '' ) ;
#10 = CYLINDRICAL_SURFACE ( 'NONE', #224, 1.999999999999993561 ) ;
#11 = CARTESIAN_POINT ( 'NONE',  ( 3.421138828918010427E-46, 1.893059892324148841, 0.0000000000000000000 ) ) ;
#12 = PLANE ( 'NONE',  #20 ) ;
#13 = PERSON_AND_ORGANIZATION_ROLE ( 'creator' ) ;
#14 = COORDINATED_UNIVERSAL_TIME_OFFSET ( 1, 0, .AHEAD. ) ;
#15 = DIRECTION ( 'NONE',  ( 0.0000000000000000000, 0.0000000000000000000, 1.000000000000000000 ) ) ;
#16 = DESIGN_CONTEXT ( 'detailed design', #219, 'design' ) ;
#17 = CC_DESIGN_PERSON_AND_ORGANIZATION_ASSIGNMENT ( #72, #169, ( #121 ) ) ;
#18 = DIRECTION ( 'NONE',  ( -3.491481338843133355E-15, -4.661916801346506497E-16, -1.000000000000000000 ) ) ;
#19 = EDGE_LOOP ( 'NONE', ( #58 ) ) ;
#20 = AXIS2_PLACEMENT_3D ( 'NONE', #90, #241, #122 ) ;
#21 = ORIENTED_EDGE ( 'NONE', *, *, #218, .F. ) ;
#22 = ORIENTED_EDGE ( 'NONE', *, *, #23, .T. ) ;
#23 = EDGE_CURVE ( 'NONE', #61, #61, #99, .T. ) ;
#24 = PLANE ( 'NONE',  #230 ) ;
#25 = VERTEX_POINT ( 'NONE', #89 ) ;
#26 = FACE_OUTER_BOUND ( 'NONE', #119, .T. ) ;
#27 = COORDINATED_UNIVERSAL_TIME_OFFSET ( 1, 0, .AHEAD. ) ;
#28 = DIRECTION ( 'NONE',  ( -3.491481338843133355E-15, -4.661916801346506497E-16, -1.000000000000000000 ) ) ;
#29 = CARTESIAN_POINT ( 'NONE',  ( 0.0000000000000000000, 0.0000000000000000000, 0.0000000000000000000 ) ) ;
#30 = APPROVAL_ROLE ( '' ) ;
#31 = ADVANCED_FACE ( 'NONE', ( #104, #231 ), #3, .T. ) ;
#32 = DATE_AND_TIME ( #112, #96 ) ;
#33 = PERSON ( 'UNSPECIFIED', 'UNSPECIFIED', 'UNSPECIFIED', ('UNSPECIFIED'), ('UNSPECIFIED'), ('UNSPECIFIED') ) ;
#34 = ADVANCED_FACE ( 'NONE', ( #148 ), #126, .T. ) ;
#35 = ADVANCED_BREP_SHAPE_REPRESENTATION ( '321328', ( #209, #141, #7 ), #132 ) ;
#36 = VERTEX_POINT ( 'NONE', #189 ) ;
#37 = CARTESIAN_POINT ( 'NONE',  ( 4.810243213855903409E-14, 6.422761997252470731E-15, 13.77708412856569531 ) ) ;
#38 = ORIENTED_EDGE ( 'NONE', *, *, #218, .T. ) ;
#39 = FACE_OUTER_BOUND ( 'NONE', #133, .T. ) ;
#40 = CC_DESIGN_PERSON_AND_ORGANIZATION_ASSIGNMENT ( #71, #196, ( #95 ) ) ;
#41 = VERTEX_POINT ( 'NONE', #11 ) ;
#42 = DIRECTION ( 'NONE',  ( -1.632144020667150115E-30, 1.000000000000000000, -4.594077002057225237E-16 ) ) ;
#43 = EDGE_LOOP ( 'NONE', ( #173 ) ) ;
#44 = FACE_OUTER_BOUND ( 'NONE', #110, .T. ) ;
#45 = APPROVAL_DATE_TIME ( #212, #175 ) ;
#46 = CALENDAR_DATE ( 2021, 26, 11 ) ;
#47 = ORIENTED_EDGE ( 'NONE', *, *, #114, .F. ) ;
#48 = CALENDAR_DATE ( 2021, 26, 11 ) ;
#49 = DATE_AND_TIME ( #48, #117 ) ;
#50 = AXIS2_PLACEMENT_3D ( 'NONE', #138, #28, #76 ) ;
#51 = CC_DESIGN_SECURITY_CLASSIFICATION ( #121, ( #170 ) ) ;
#52 = DIRECTION ( 'NONE',  ( -3.491481338843133355E-15, -4.661916801346506497E-16, -1.000000000000000000 ) ) ;
#53 = APPLICATION_PROTOCOL_DEFINITION ( 'international standard', 'config_control_design', 1994, #219 ) ;
#54 =( LENGTH_UNIT ( ) NAMED_UNIT ( * ) SI_UNIT ( .MILLI., .METRE. ) );
#55 = PLANE ( 'NONE',  #66 ) ;
#56 = CIRCLE ( 'NONE', #125, 2.123999999999998778 ) ;
#57 = CC_DESIGN_APPROVAL ( #178, ( #121 ) ) ;
#58 = ORIENTED_EDGE ( 'NONE', *, *, #182, .F. ) ;
#59 = ADVANCED_FACE ( 'NONE', ( #26, #181 ), #10, .T. ) ;
#60 = FACE_OUTER_BOUND ( 'NONE', #202, .T. ) ;
#61 = VERTEX_POINT ( 'NONE', #102 ) ;
#62 = DIRECTION ( 'NONE',  ( 0.0000000000000000000, 1.000000000000000000, 0.0000000000000000000 ) ) ;
#63 = DIRECTION ( 'NONE',  ( -3.491481338843133355E-15, 9.031770143711729009E-17, -1.000000000000000000 ) ) ;
#64 = EDGE_LOOP ( 'NONE', ( #139 ) ) ;
#65 = CIRCLE ( 'NONE', #233, 1.893059892324148841 ) ;
#66 = AXIS2_PLACEMENT_3D ( 'NONE', #78, #153, #201 ) ;
#67 = ADVANCED_FACE ( 'NONE', ( #44 ), #12, .T. ) ;
#68 = CARTESIAN_POINT ( 'NONE',  ( 2.779219145719134403E-13, -7.189289034394536528E-15, 79.60000000000000853 ) ) ;
#69 = DIRECTION ( 'NONE',  ( 0.0000000000000000000, 1.000000000000000000, 0.0000000000000000000 ) ) ;
#70 = DIRECTION ( 'NONE',  ( 1.627699551514059774E-30, -1.000000000000000000, 4.661916801346507483E-16 ) ) ;
#71 = PERSON_AND_ORGANIZATION ( #33, #164 ) ;
#72 = PERSON_AND_ORGANIZATION ( #33, #164 ) ;
#73 = EDGE_CURVE ( 'NONE', #36, #36, #240, .T. ) ;
#74 = CLOSED_SHELL ( 'NONE', ( #222, #235, #59, #210, #67 ) ) ;
#75 = AXIS2_PLACEMENT_3D ( 'NONE', #120, #227, #62 ) ;
#76 = DIRECTION ( 'NONE',  ( -2.901589370074943035E-30, 1.000000000000000000, -8.167248003657316043E-16 ) ) ;
#77 = EDGE_LOOP ( 'NONE', ( #38 ) ) ;
#78 = CARTESIAN_POINT ( 'NONE',  ( 2.793185071074506684E-13, -7.225416114969383207E-15, 80.00000000000000000 ) ) ;
#79 = DIRECTION ( 'NONE',  ( 1.627699551514059774E-30, -1.000000000000000000, 4.661916801346506497E-16 ) ) ;
#80 = EDGE_LOOP ( 'NONE', ( #191 ) ) ;
#81 = CC_DESIGN_DATE_AND_TIME_ASSIGNMENT ( #143, #204, ( #98 ) ) ;
#82 = CARTESIAN_POINT ( 'NONE',  ( 2.793185071074506684E-13, 1.599999999999987876, 80.00000000000000000 ) ) ;
#83 = CARTESIAN_POINT ( 'NONE',  ( 4.885231259955590439E-14, -1.263712492114123682E-15, 13.99185842870425134 ) ) ;
#84 = CARTESIAN_POINT ( 'NONE',  ( 4.810243213855903409E-14, -1.244314570997843633E-15, 13.77708412856569531 ) ) ;
#85 = PERSON_AND_ORGANIZATION ( #33, #164 ) ;
#86 = CC_DESIGN_APPROVAL ( #200, ( #98 ) ) ;
#87 = PRODUCT_DEFINITION_SHAPE ( 'NONE', 'NONE',  #98 ) ;
#88 = DIRECTION ( 'NONE',  ( -3.491481338843133355E-15, 9.031770143711729009E-17, -1.000000000000000000 ) ) ;
#89 = CARTESIAN_POINT ( 'NONE',  ( 4.810243213855903409E-14, 2.123999999999998334, 13.77708412856569531 ) ) ;
#90 = CARTESIAN_POINT ( 'NONE',  ( 4.810243213855903409E-14, 2.123999999999998334, 13.77708412856569531 ) ) ;
#91 = CARTESIAN_POINT ( 'NONE',  ( 1.396592535537252948E-15, 2.123999999999998778, 0.3999999999999999112 ) ) ;
#92 = DIRECTION ( 'NONE',  ( -3.491481338843133355E-15, -4.661916801346506497E-16, -1.000000000000000000 ) ) ;
#93 = EDGE_CURVE ( 'NONE', #190, #190, #145, .T. ) ;
#94 = AXIS2_PLACEMENT_3D ( 'NONE', #84, #160, #159 ) ;
#95 = PRODUCT ( '321328', '321328', '', ( #168 ) ) ;
#96 = LOCAL_TIME ( 11, 2, 41.00000000000000000, #149 ) ;
#97 = AXIS2_PLACEMENT_3D ( 'NONE', #185, #234, #70 ) ;
#98 = PRODUCT_DEFINITION ( 'UNKNOWN', '', #170, #16 ) ;
#99 = CIRCLE ( 'NONE', #111, 2.123999999999999666 ) ;
#100 = LOCAL_TIME ( 11, 2, 41.00000000000000000, #238 ) ;
#101 = CYLINDRICAL_SURFACE ( 'NONE', #129, 2.123999999999995225 ) ;
#102 = CARTESIAN_POINT ( 'NONE',  ( 4.810243213855903409E-14, 2.123999999999998334, 13.77708412856569531 ) ) ;
#103 = AXIS2_PLACEMENT_3D ( 'NONE', #127, #207, #69 ) ;
#104 = FACE_OUTER_BOUND ( 'NONE', #77, .T. ) ;
#105 = CC_DESIGN_APPROVAL ( #175, ( #170 ) ) ;
#106 = DIRECTION ( 'NONE',  ( 0.0000000000000000000, 1.000000000000000000, 0.0000000000000000000 ) ) ;
#107 = CC_DESIGN_DATE_AND_TIME_ASSIGNMENT ( #32, #113, ( #121 ) ) ;
#108 = PERSON_AND_ORGANIZATION ( #33, #164 ) ;
#109 = PERSON_AND_ORGANIZATION ( #33, #164 ) ;
#110 = EDGE_LOOP ( 'NONE', ( #22 ) ) ;
#111 = AXIS2_PLACEMENT_3D ( 'NONE', #167, #88, #106 ) ;
#112 = CALENDAR_DATE ( 2021, 26, 11 ) ;
#113 = DATE_TIME_ROLE ( 'classification_date' ) ;
#114 = EDGE_CURVE ( 'NONE', #41, #41, #65, .T. ) ;
#115 = UNCERTAINTY_MEASURE_WITH_UNIT (LENGTH_MEASURE( 1.000000000000000082E-05 ), #54, 'distance_accuracy_value', 'NONE');
#116 = ADVANCED_FACE ( 'NONE', ( #158, #2 ), #101, .T. ) ;
#117 = LOCAL_TIME ( 11, 2, 41.00000000000000000, #14 ) ;
#118 = APPROVAL_ROLE ( '' ) ;
#119 = EDGE_LOOP ( 'NONE', ( #243 ) ) ;
#120 = CARTESIAN_POINT ( 'NONE',  ( 2.779219145719134403E-13, -7.189289034394536528E-15, 79.60000000000000853 ) ) ;
#121 = SECURITY_CLASSIFICATION ( '', '', #183 ) ;
#122 = DIRECTION ( 'NONE',  ( 3.153425691349006731E-31, 1.000000000000000000, 9.031770143711729009E-17 ) ) ;
#123 = VERTEX_POINT ( 'NONE', #91 ) ;
#124 = ADVANCED_FACE ( 'NONE', ( #192 ), #24, .T. ) ;
#125 = AXIS2_PLACEMENT_3D ( 'NONE', #242, #92, #42 ) ;
#126 = PLANE ( 'NONE',  #179 ) ;
#127 = CARTESIAN_POINT ( 'NONE',  ( 2.793185071074506684E-13, -7.225416114969383207E-15, 80.00000000000000000 ) ) ;
#128 = SHAPE_DEFINITION_REPRESENTATION ( #87, #35 ) ;
#129 = AXIS2_PLACEMENT_3D ( 'NONE', #163, #18, #156 ) ;
#130 = APPROVAL_DATE_TIME ( #49, #178 ) ;
#131 = PRODUCT_RELATED_PRODUCT_CATEGORY ( 'detail', '', ( #95 ) ) ;
#132 =( GEOMETRIC_REPRESENTATION_CONTEXT ( 3 ) GLOBAL_UNCERTAINTY_ASSIGNED_CONTEXT ( ( #115 ) ) GLOBAL_UNIT_ASSIGNED_CONTEXT ( ( #54, #155, #150 ) ) REPRESENTATION_CONTEXT ( 'NONE', 'WORKASPACE' ) );
#133 = EDGE_LOOP ( 'NONE', ( #136 ) ) ;
#134 = DATE_AND_TIME ( #135, #100 ) ;
#135 = CALENDAR_DATE ( 2021, 26, 11 ) ;
#136 = ORIENTED_EDGE ( 'NONE', *, *, #73, .F. ) ;
#137 = AXIS2_PLACEMENT_3D ( 'NONE', #83, #225, #226 ) ;
#138 = CARTESIAN_POINT ( 'NONE',  ( 4.810243213855904040E-14, 6.422761997252471520E-15, 13.77708412856569709 ) ) ;
#139 = ORIENTED_EDGE ( 'NONE', *, *, #182, .T. ) ;
#140 = FACE_BOUND ( 'NONE', #80, .T. ) ;
#141 = MANIFOLD_SOLID_BREP ( 'Corps-Déplacer/Copier1[2]', #203 ) ;
#142 = AXIS2_PLACEMENT_3D ( 'NONE', #68, #208, #157 ) ;
#143 = DATE_AND_TIME ( #46, #4 ) ;
#144 = CALENDAR_DATE ( 2021, 26, 11 ) ;
#145 = CIRCLE ( 'NONE', #103, 1.599999999999994982 ) ;
#146 = APPROVAL_PERSON_ORGANIZATION ( #217, #178, #30 ) ;
#147 = CARTESIAN_POINT ( 'NONE',  ( 3.081332737725271940E-30, 4.114275708917333222E-31, 8.825287717981159293E-16 ) ) ;
#148 = FACE_OUTER_BOUND ( 'NONE', #239, .T. ) ;
#149 = COORDINATED_UNIVERSAL_TIME_OFFSET ( 1, 0, .AHEAD. ) ;
#150 =( NAMED_UNIT ( * ) SI_UNIT ( $, .STERADIAN. ) SOLID_ANGLE_UNIT ( ) );
#151 = LOCAL_TIME ( 11, 2, 41.00000000000000000, #205 ) ;
#152 = ORIENTED_EDGE ( 'NONE', *, *, #114, .T. ) ;
#153 = DIRECTION ( 'NONE',  ( 3.491481338843133355E-15, -9.031770143711729009E-17, 1.000000000000000000 ) ) ;
#154 = ORIENTED_EDGE ( 'NONE', *, *, #23, .F. ) ;
#155 =( NAMED_UNIT ( * ) PLANE_ANGLE_UNIT ( ) SI_UNIT ( $, .RADIAN. ) );
#156 = DIRECTION ( 'NONE',  ( -1.627699551514059774E-30, 1.000000000000000000, -4.661916801346505511E-16 ) ) ;
#157 = DIRECTION ( 'NONE',  ( 0.0000000000000000000, 1.000000000000000000, 0.0000000000000000000 ) ) ;
#158 = FACE_OUTER_BOUND ( 'NONE', #64, .T. ) ;
#159 = DIRECTION ( 'NONE',  ( 0.0000000000000000000, 1.000000000000000000, 0.0000000000000000000 ) ) ;
#160 = DIRECTION ( 'NONE',  ( -3.491481338843133355E-15, 9.031770143711729009E-17, -1.000000000000000000 ) ) ;
#161 = CIRCLE ( 'NONE', #50, 2.123999999999991672 ) ;
#162 = APPLICATION_CONTEXT ( 'configuration controlled 3d designs of mechanical parts and assemblies' ) ;
#163 = CARTESIAN_POINT ( 'NONE',  ( 0.0000000000000000000, 0.0000000000000000000, 0.0000000000000000000 ) ) ;
#164 = ORGANIZATION ( 'UNSPECIFIED', 'UNSPECIFIED', '' ) ;
#165 = VERTEX_POINT ( 'NONE', #8 ) ;
#166 = CC_DESIGN_PERSON_AND_ORGANIZATION_ASSIGNMENT ( #108, #188, ( #170 ) ) ;
#167 = CARTESIAN_POINT ( 'NONE',  ( 4.810243213855903409E-14, -1.244314570997843633E-15, 13.77708412856569531 ) ) ;
#168 = MECHANICAL_CONTEXT ( 'NONE', #162, 'mechanical' ) ;
#169 = PERSON_AND_ORGANIZATION_ROLE ( 'classification_officer' ) ;
#170 = PRODUCT_DEFINITION_FORMATION_WITH_SPECIFIED_SOURCE ( 'ANY', '', #95, .NOT_KNOWN. ) ;
#171 = PERSON_AND_ORGANIZATION ( #33, #164 ) ;
#172 = APPROVAL_STATUS ( 'not_yet_approved' ) ;
#173 = ORIENTED_EDGE ( 'NONE', *, *, #93, .T. ) ;
#174 = APPROVAL_PERSON_ORGANIZATION ( #171, #200, #118 ) ;
#175 = APPROVAL ( #184, 'UNSPECIFIED' ) ;
#176 = DIRECTION ( 'NONE',  ( 3.491481338843133355E-15, 4.661916801346506497E-16, 1.000000000000000000 ) ) ;
#177 = DIRECTION ( 'NONE',  ( -3.491481338843133355E-15, -4.661916801346506497E-16, -1.000000000000000000 ) ) ;
#178 = APPROVAL ( #214, 'UNSPECIFIED' ) ;
#179 = AXIS2_PLACEMENT_3D ( 'NONE', #195, #52, #193 ) ;
#180 = PERSON_AND_ORGANIZATION ( #33, #164 ) ;
#181 = FACE_OUTER_BOUND ( 'NONE', #216, .T. ) ;
#182 = EDGE_CURVE ( 'NONE', #25, #25, #161, .T. ) ;
#183 = SECURITY_CLASSIFICATION_LEVEL ( 'unclassified' ) ;
#184 = APPROVAL_STATUS ( 'not_yet_approved' ) ;
#185 = CARTESIAN_POINT ( 'NONE',  ( 3.081332737725271940E-30, 4.114275708917333222E-31, 8.825287717981159293E-16 ) ) ;
#186 = EDGE_LOOP ( 'NONE', ( #154 ) ) ;
#187 = CARTESIAN_POINT ( 'NONE',  ( 0.0000000000000000000, 0.0000000000000000000, 0.0000000000000000000 ) ) ;
#188 = PERSON_AND_ORGANIZATION_ROLE ( 'design_supplier' ) ;
#189 = CARTESIAN_POINT ( 'NONE',  ( 2.779219145719134403E-13, 1.999999999999988010, 79.60000000000000853 ) ) ;
#190 = VERTEX_POINT ( 'NONE', #82 ) ;
#191 = ORIENTED_EDGE ( 'NONE', *, *, #206, .T. ) ;
#192 = FACE_OUTER_BOUND ( 'NONE', #19, .T. ) ;
#193 = DIRECTION ( 'NONE',  ( -1.627699551514059774E-30, 1.000000000000000000, -4.661916801346506497E-16 ) ) ;
#194 = CONICAL_SURFACE ( 'NONE', #94, 2.123999999999999666, 0.5235987755982928205 ) ;
#195 = CARTESIAN_POINT ( 'NONE',  ( -1.540666368862635970E-30, 1.893059892324148841, -4.412643858990579646E-16 ) ) ;
#196 = PERSON_AND_ORGANIZATION_ROLE ( 'design_owner' ) ;
#197 = EDGE_LOOP ( 'NONE', ( #47 ) ) ;
#198 = EDGE_LOOP ( 'NONE', ( #21 ) ) ;
#199 = CONICAL_SURFACE ( 'NONE', #75, 1.999999999999995337, 0.7853981633974516097 ) ;
#200 = APPROVAL ( #172, 'UNSPECIFIED' ) ;
#201 = DIRECTION ( 'NONE',  ( -3.153425691349006731E-31, -1.000000000000000000, -9.031770143711729009E-17 ) ) ;
#202 = EDGE_LOOP ( 'NONE', ( #5 ) ) ;
#203 = CLOSED_SHELL ( 'NONE', ( #124, #116, #31, #34 ) ) ;
#204 = DATE_TIME_ROLE ( 'creation_date' ) ;
#205 = COORDINATED_UNIVERSAL_TIME_OFFSET ( 1, 0, .AHEAD. ) ;
#206 = EDGE_CURVE ( 'NONE', #165, #165, #237, .T. ) ;
#207 = DIRECTION ( 'NONE',  ( -3.491481338843133355E-15, 9.031770143711729009E-17, -1.000000000000000000 ) ) ;
#208 = DIRECTION ( 'NONE',  ( -3.491481338843133355E-15, 9.031770143711729009E-17, -1.000000000000000000 ) ) ;
#209 = MANIFOLD_SOLID_BREP ( 'Corps-Déplacer/Copier1[1]', #74 ) ;
#210 = ADVANCED_FACE ( 'NONE', ( #140, #6 ), #194, .T. ) ;
#211 = DIRECTION ( 'NONE',  ( 3.153425691349006731E-31, 1.000000000000000000, 9.031770143711729009E-17 ) ) ;
#212 = DATE_AND_TIME ( #144, #151 ) ;
#213 = PERSON_AND_ORGANIZATION_ROLE ( 'creator' ) ;
#214 = APPROVAL_STATUS ( 'not_yet_approved' ) ;
#215 = APPLICATION_PROTOCOL_DEFINITION ( 'international standard', 'config_control_design', 1994, #162 ) ;
#216 = EDGE_LOOP ( 'NONE', ( #223 ) ) ;
#217 = PERSON_AND_ORGANIZATION ( #33, #164 ) ;
#218 = EDGE_CURVE ( 'NONE', #123, #123, #56, .T. ) ;
#219 = APPLICATION_CONTEXT ( 'configuration controlled 3d designs of mechanical parts and assemblies' ) ;
#220 = CC_DESIGN_PERSON_AND_ORGANIZATION_ASSIGNMENT ( #85, #213, ( #98 ) ) ;
#221 = APPROVAL_PERSON_ORGANIZATION ( #180, #175, #9 ) ;
#222 = ADVANCED_FACE ( 'NONE', ( #60 ), #55, .T. ) ;
#223 = ORIENTED_EDGE ( 'NONE', *, *, #206, .F. ) ;
#224 = AXIS2_PLACEMENT_3D ( 'NONE', #29, #63, #211 ) ;
#225 = DIRECTION ( 'NONE',  ( -3.491481338843133355E-15, 9.031770143711729009E-17, -1.000000000000000000 ) ) ;
#226 = DIRECTION ( 'NONE',  ( 0.0000000000000000000, 1.000000000000000000, 0.0000000000000000000 ) ) ;
#227 = DIRECTION ( 'NONE',  ( -3.491481338843133355E-15, 9.031770143711729009E-17, -1.000000000000000000 ) ) ;
#228 = FACE_BOUND ( 'NONE', #43, .T. ) ;
#229 = APPROVAL_DATE_TIME ( #134, #200 ) ;
#230 = AXIS2_PLACEMENT_3D ( 'NONE', #37, #176, #79 ) ;
#231 = FACE_BOUND ( 'NONE', #197, .T. ) ;
#232 = CC_DESIGN_PERSON_AND_ORGANIZATION_ASSIGNMENT ( #109, #13, ( #170 ) ) ;
#233 = AXIS2_PLACEMENT_3D ( 'NONE', #147, #177, #1 ) ;
#234 = DIRECTION ( 'NONE',  ( 3.491481338843133355E-15, 4.661916801346506497E-16, 1.000000000000000000 ) ) ;
#235 = ADVANCED_FACE ( 'NONE', ( #228, #39 ), #199, .T. ) ;
#236 = DIRECTION ( 'NONE',  ( 1.000000000000000000, 0.0000000000000000000, 0.0000000000000000000 ) ) ;
#237 = CIRCLE ( 'NONE', #137, 1.999999999999991784 ) ;
#238 = COORDINATED_UNIVERSAL_TIME_OFFSET ( 1, 0, .AHEAD. ) ;
#239 = EDGE_LOOP ( 'NONE', ( #152 ) ) ;
#240 = CIRCLE ( 'NONE', #142, 1.999999999999995337 ) ;
#241 = DIRECTION ( 'NONE',  ( -3.491481338843133355E-15, 9.031770143711729009E-17, -1.000000000000000000 ) ) ;
#242 = CARTESIAN_POINT ( 'NONE',  ( 1.396592535537256300E-15, 1.864766720538606592E-16, 0.4000000000000009104 ) ) ;
#243 = ORIENTED_EDGE ( 'NONE', *, *, #73, .T. ) ;
ENDSEC;
END-ISO-10303-21;
