ISO-10303-21;
HEADER;
FILE_DESCRIPTION (( 'STEP AP203' ),
    '1' );
FILE_NAME ('321327.step',
    '2021-11-26T10:02:40',
    ( '' ),
    ( '' ),
    'SwSTEP 2.0',
    'SolidWorks 2019',
    '' );
FILE_SCHEMA (( 'CONFIG_CONTROL_DESIGN' ));
ENDSEC;

DATA;
#1 = FACE_OUTER_BOUND ( 'NONE', #85, .T. ) ;
#2 = APPROVAL_STATUS ( 'not_yet_approved' ) ;
#3 = FACE_OUTER_BOUND ( 'NONE', #92, .T. ) ;
#4 = FACE_OUTER_BOUND ( 'NONE', #64, .T. ) ;
#5 = DIRECTION ( 'NONE',  ( 0.0000000000000000000, 1.000000000000000000, 0.0000000000000000000 ) ) ;
#6 = EDGE_LOOP ( 'NONE', ( #123 ) ) ;
#7 = AXIS2_PLACEMENT_3D ( 'NONE', #134, #185, #95 ) ;
#8 = DIRECTION ( 'NONE',  ( -3.491481338843133355E-15, -4.657449513482446847E-16, -1.000000000000000000 ) ) ;
#9 = CC_DESIGN_SECURITY_CLASSIFICATION ( #116, ( #72 ) ) ;
#10 = EDGE_LOOP ( 'NONE', ( #151 ) ) ;
#11 = DIRECTION ( 'NONE',  ( -3.491481338843133355E-15, 9.031770143711729009E-17, -1.000000000000000000 ) ) ;
#12 = PERSON_AND_ORGANIZATION_ROLE ( 'creator' ) ;
#13 = APPLICATION_PROTOCOL_DEFINITION ( 'international standard', 'config_control_design', 1994, #27 ) ;
#14 = CARTESIAN_POINT ( 'NONE',  ( 4.813266925392180914E-14, -1.245096745236403126E-15, 13.78574438260353752 ) ) ;
#15 = DIRECTION ( 'NONE',  ( 0.0000000000000000000, 0.0000000000000000000, 1.000000000000000000 ) ) ;
#16 = ORIENTED_EDGE ( 'NONE', *, *, #239, .F. ) ;
#17 = PERSON_AND_ORGANIZATION_ROLE ( 'design_supplier' ) ;
#18 = AXIS2_PLACEMENT_3D ( 'NONE', #240, #88, #241 ) ;
#19 = CC_DESIGN_APPROVAL ( #200, ( #72 ) ) ;
#20 = CARTESIAN_POINT ( 'NONE',  ( 2.793185071074506684E-13, -7.225416114969383207E-15, 80.00000000000000000 ) ) ;
#21 = DIRECTION ( 'NONE',  ( -3.491481338843133355E-15, 9.031770143711729009E-17, -1.000000000000000000 ) ) ;
#22 = DATE_AND_TIME ( #56, #216 ) ;
#23 = DIRECTION ( 'NONE',  ( 0.0000000000000000000, 1.000000000000000000, 0.0000000000000000000 ) ) ;
#24 = EDGE_CURVE ( 'NONE', #238, #238, #31, .T. ) ;
#25 = CALENDAR_DATE ( 2021, 26, 11 ) ;
#26 = DIRECTION ( 'NONE',  ( -3.491481338843133355E-15, 9.031770143711729009E-17, -1.000000000000000000 ) ) ;
#27 = APPLICATION_CONTEXT ( 'configuration controlled 3d designs of mechanical parts and assemblies' ) ;
#28 = VERTEX_POINT ( 'NONE', #157 ) ;
#29 = AXIS2_PLACEMENT_3D ( 'NONE', #201, #77, #38 ) ;
#30 = PERSON_AND_ORGANIZATION ( #131, #144 ) ;
#31 = CIRCLE ( 'NONE', #159, 2.118999999999999773 ) ;
#32 = CARTESIAN_POINT ( 'NONE',  ( 2.779219145719134403E-13, 1.999999999999988010, 79.60000000000000853 ) ) ;
#33 = CC_DESIGN_DATE_AND_TIME_ASSIGNMENT ( #235, #42, ( #161 ) ) ;
#34 = VERTEX_POINT ( 'NONE', #106 ) ;
#35 = CIRCLE ( 'NONE', #193, 1.999999999999995337 ) ;
#36 = SHAPE_DEFINITION_REPRESENTATION ( #207, #231 ) ;
#37 = DATE_TIME_ROLE ( 'classification_date' ) ;
#38 = DIRECTION ( 'NONE',  ( 1.626139806292799411E-30, -1.000000000000000000, 4.657449513482446847E-16 ) ) ;
#39 = CC_DESIGN_DATE_AND_TIME_ASSIGNMENT ( #115, #37, ( #116 ) ) ;
#40 = CALENDAR_DATE ( 2021, 26, 11 ) ;
#41 = DIRECTION ( 'NONE',  ( 3.491481338843133355E-15, 4.657449513482446847E-16, 1.000000000000000000 ) ) ;
#42 = DATE_TIME_ROLE ( 'creation_date' ) ;
#43 = CLOSED_SHELL ( 'NONE', ( #171, #110, #135, #215 ) ) ;
#44 = CYLINDRICAL_SURFACE ( 'NONE', #169, 1.999999999999993561 ) ;
#45 =( GEOMETRIC_REPRESENTATION_CONTEXT ( 3 ) GLOBAL_UNCERTAINTY_ASSIGNED_CONTEXT ( ( #205 ) ) GLOBAL_UNIT_ASSIGNED_CONTEXT ( ( #81, #188, #170 ) ) REPRESENTATION_CONTEXT ( 'NONE', 'WORKASPACE' ) );
#46 = CARTESIAN_POINT ( 'NONE',  ( 4.813266925392180914E-14, 2.118999999999998440, 13.78574438260353752 ) ) ;
#47 = PERSON_AND_ORGANIZATION ( #131, #144 ) ;
#48 = CARTESIAN_POINT ( 'NONE',  ( 0.0000000000000000000, 0.0000000000000000000, 0.0000000000000000000 ) ) ;
#49 = MANIFOLD_SOLID_BREP ( 'Corps-Déplacer/Copier1[1]', #80 ) ;
#50 = ORIENTED_EDGE ( 'NONE', *, *, #220, .T. ) ;
#51 = CIRCLE ( 'NONE', #61, 1.888059892324148281 ) ;
#52 = PLANE ( 'NONE',  #18 ) ;
#53 = EDGE_LOOP ( 'NONE', ( #232 ) ) ;
#54 = APPROVAL_PERSON_ORGANIZATION ( #213, #210, #194 ) ;
#55 = DIRECTION ( 'NONE',  ( -3.491481338843133355E-15, 9.031770143711729009E-17, -1.000000000000000000 ) ) ;
#56 = CALENDAR_DATE ( 2021, 26, 11 ) ;
#57 = CC_DESIGN_PERSON_AND_ORGANIZATION_ASSIGNMENT ( #47, #124, ( #98 ) ) ;
#58 = FACE_OUTER_BOUND ( 'NONE', #111, .T. ) ;
#59 = DIRECTION ( 'NONE',  ( 0.0000000000000000000, 1.000000000000000000, 0.0000000000000000000 ) ) ;
#60 = COORDINATED_UNIVERSAL_TIME_OFFSET ( 1, 0, .AHEAD. ) ;
#61 = AXIS2_PLACEMENT_3D ( 'NONE', #191, #173, #84 ) ;
#62 = CARTESIAN_POINT ( 'NONE',  ( 4.813266925392180282E-14, 6.420640846775021431E-15, 13.78574438260353574 ) ) ;
#63 = VERTEX_POINT ( 'NONE', #214 ) ;
#64 = EDGE_LOOP ( 'NONE', ( #156 ) ) ;
#65 = AXIS2_PLACEMENT_3D ( 'NONE', #48, #15, #212 ) ;
#66 = CC_DESIGN_PERSON_AND_ORGANIZATION_ASSIGNMENT ( #197, #242, ( #116 ) ) ;
#67 = DIRECTION ( 'NONE',  ( 1.626139806292799411E-30, -1.000000000000000000, 4.657449513482446847E-16 ) ) ;
#68 = DIRECTION ( 'NONE',  ( -3.491481338843133355E-15, 9.031770143711729009E-17, -1.000000000000000000 ) ) ;
#69 = CARTESIAN_POINT ( 'NONE',  ( 4.885231259955590439E-14, 1.999999999999990452, 13.99185842870425134 ) ) ;
#70 = CARTESIAN_POINT ( 'NONE',  ( 1.396592535537252948E-15, 2.118999999999997996, 0.3999999999999999112 ) ) ;
#71 = ADVANCED_FACE ( 'NONE', ( #217 ), #52, .T. ) ;
#72 = PRODUCT_DEFINITION_FORMATION_WITH_SPECIFIED_SOURCE ( 'ANY', '', #98, .NOT_KNOWN. ) ;
#73 = EDGE_LOOP ( 'NONE', ( #109 ) ) ;
#74 = COORDINATED_UNIVERSAL_TIME_OFFSET ( 1, 0, .AHEAD. ) ;
#75 = FACE_BOUND ( 'NONE', #73, .T. ) ;
#76 = APPROVAL_ROLE ( '' ) ;
#77 = DIRECTION ( 'NONE',  ( 3.491481338843133355E-15, 4.657449513482446847E-16, 1.000000000000000000 ) ) ;
#78 = DIRECTION ( 'NONE',  ( -3.491481338843133355E-15, 9.031770143711729009E-17, -1.000000000000000000 ) ) ;
#79 = CARTESIAN_POINT ( 'NONE',  ( 2.779219145719134403E-13, -7.189289034394536528E-15, 79.60000000000000853 ) ) ;
#80 = CLOSED_SHELL ( 'NONE', ( #86, #117, #206, #120, #71 ) ) ;
#81 =( LENGTH_UNIT ( ) NAMED_UNIT ( * ) SI_UNIT ( .MILLI., .METRE. ) );
#82 = FACE_OUTER_BOUND ( 'NONE', #119, .T. ) ;
#83 = ORIENTED_EDGE ( 'NONE', *, *, #154, .F. ) ;
#84 = DIRECTION ( 'NONE',  ( -1.626139806292799411E-30, 1.000000000000000000, -4.657449513482446847E-16 ) ) ;
#85 = EDGE_LOOP ( 'NONE', ( #16 ) ) ;
#86 = ADVANCED_FACE ( 'NONE', ( #224 ), #93, .T. ) ;
#87 = LOCAL_TIME ( 11, 2, 40.00000000000000000, #74 ) ;
#88 = DIRECTION ( 'NONE',  ( -3.491481338843133355E-15, 9.031770143711729009E-17, -1.000000000000000000 ) ) ;
#89 = EDGE_CURVE ( 'NONE', #234, #234, #113, .T. ) ;
#90 = CC_DESIGN_APPROVAL ( #210, ( #161 ) ) ;
#91 = CC_DESIGN_PERSON_AND_ORGANIZATION_ASSIGNMENT ( #149, #230, ( #161 ) ) ;
#92 = EDGE_LOOP ( 'NONE', ( #138 ) ) ;
#93 = PLANE ( 'NONE',  #137 ) ;
#94 = LOCAL_TIME ( 11, 2, 40.00000000000000000, #60 ) ;
#95 = DIRECTION ( 'NONE',  ( -1.635995233552160475E-30, 1.000000000000000000, -4.604917202628385931E-16 ) ) ;
#96 = APPROVAL_ROLE ( '' ) ;
#97 = CARTESIAN_POINT ( 'NONE',  ( 0.0000000000000000000, 0.0000000000000000000, 0.0000000000000000000 ) ) ;
#98 = PRODUCT ( '321327', '321327', '', ( #211 ) ) ;
#99 = EDGE_LOOP ( 'NONE', ( #243 ) ) ;
#100 = DIRECTION ( 'NONE',  ( -3.491481338843133355E-15, -4.657449513482446847E-16, -1.000000000000000000 ) ) ;
#101 = APPROVAL_DATE_TIME ( #128, #210 ) ;
#102 = EDGE_CURVE ( 'NONE', #63, #63, #168, .T. ) ;
#103 = ORIENTED_EDGE ( 'NONE', *, *, #154, .T. ) ;
#104 = FACE_OUTER_BOUND ( 'NONE', #6, .T. ) ;
#105 = DIRECTION ( 'NONE',  ( 0.0000000000000000000, 1.000000000000000000, 0.0000000000000000000 ) ) ;
#106 = CARTESIAN_POINT ( 'NONE',  ( 0.0000000000000000000, 1.888059892324148281, 0.0000000000000000000 ) ) ;
#107 = CIRCLE ( 'NONE', #160, 2.118999999999991779 ) ;
#108 = FACE_OUTER_BOUND ( 'NONE', #127, .T. ) ;
#109 = ORIENTED_EDGE ( 'NONE', *, *, #112, .T. ) ;
#110 = ADVANCED_FACE ( 'NONE', ( #58, #133 ), #222, .T. ) ;
#111 = EDGE_LOOP ( 'NONE', ( #103 ) ) ;
#112 = EDGE_CURVE ( 'NONE', #192, #192, #164, .T. ) ;
#113 = CIRCLE ( 'NONE', #7, 2.118999999999997996 ) ;
#114 = CARTESIAN_POINT ( 'NONE',  ( 4.813266925392181545E-14, 6.420640846775023009E-15, 13.78574438260353929 ) ) ;
#115 = DATE_AND_TIME ( #142, #87 ) ;
#116 = SECURITY_CLASSIFICATION ( '', '', #199 ) ;
#117 = ADVANCED_FACE ( 'NONE', ( #229, #1 ), #153, .T. ) ;
#118 = CARTESIAN_POINT ( 'NONE',  ( 2.793185071074506684E-13, -7.225416114969383207E-15, 80.00000000000000000 ) ) ;
#119 = EDGE_LOOP ( 'NONE', ( #50 ) ) ;
#120 = ADVANCED_FACE ( 'NONE', ( #75, #4 ), #121, .T. ) ;
#121 = CONICAL_SURFACE ( 'NONE', #228, 2.118999999999999773, 0.5235987755982913772 ) ;
#122 = DIRECTION ( 'NONE',  ( -3.491481338843133355E-15, 9.031770143711729009E-17, -1.000000000000000000 ) ) ;
#123 = ORIENTED_EDGE ( 'NONE', *, *, #112, .F. ) ;
#124 = PERSON_AND_ORGANIZATION_ROLE ( 'design_owner' ) ;
#125 = APPROVAL_STATUS ( 'not_yet_approved' ) ;
#126 = AXIS2_PLACEMENT_3D ( 'NONE', #79, #55, #59 ) ;
#127 = EDGE_LOOP ( 'NONE', ( #195 ) ) ;
#128 = DATE_AND_TIME ( #218, #196 ) ;
#129 = CC_DESIGN_PERSON_AND_ORGANIZATION_ASSIGNMENT ( #136, #17, ( #72 ) ) ;
#130 = AXIS2_PLACEMENT_3D ( 'NONE', #20, #26, #23 ) ;
#131 = PERSON ( 'UNSPECIFIED', 'UNSPECIFIED', 'UNSPECIFIED', ('UNSPECIFIED'), ('UNSPECIFIED'), ('UNSPECIFIED') ) ;
#132 = CONICAL_SURFACE ( 'NONE', #29, 1.888059892324148281, 0.5235987755982979275 ) ;
#133 = FACE_OUTER_BOUND ( 'NONE', #221, .T. ) ;
#134 = CARTESIAN_POINT ( 'NONE',  ( 1.396592535537256300E-15, 1.862979805392983078E-16, 0.4000000000000009104 ) ) ;
#135 = ADVANCED_FACE ( 'NONE', ( #3, #146 ), #132, .T. ) ;
#136 = PERSON_AND_ORGANIZATION ( #131, #144 ) ;
#137 = AXIS2_PLACEMENT_3D ( 'NONE', #118, #166, #165 ) ;
#138 = ORIENTED_EDGE ( 'NONE', *, *, #89, .T. ) ;
#139 = CARTESIAN_POINT ( 'NONE',  ( 0.0000000000000000000, 0.0000000000000000000, 0.0000000000000000000 ) ) ;
#140 = DESIGN_CONTEXT ( 'detailed design', #209, 'design' ) ;
#141 = AXIS2_PLACEMENT_3D ( 'NONE', #62, #41, #67 ) ;
#142 = CALENDAR_DATE ( 2021, 26, 11 ) ;
#143 = COORDINATED_UNIVERSAL_TIME_OFFSET ( 1, 0, .AHEAD. ) ;
#144 = ORGANIZATION ( 'UNSPECIFIED', 'UNSPECIFIED', '' ) ;
#145 = FACE_OUTER_BOUND ( 'NONE', #219, .T. ) ;
#146 = FACE_BOUND ( 'NONE', #99, .T. ) ;
#147 = COORDINATED_UNIVERSAL_TIME_OFFSET ( 1, 0, .AHEAD. ) ;
#148 = DIRECTION ( 'NONE',  ( -1.626139806292799761E-30, 1.000000000000000000, -4.657449513482447833E-16 ) ) ;
#149 = PERSON_AND_ORGANIZATION ( #131, #144 ) ;
#150 = DIRECTION ( 'NONE',  ( 0.0000000000000000000, 1.000000000000000000, 0.0000000000000000000 ) ) ;
#151 = ORIENTED_EDGE ( 'NONE', *, *, #102, .T. ) ;
#152 = DIRECTION ( 'NONE',  ( -1.626139806292799411E-30, 1.000000000000000000, -4.657449513482446847E-16 ) ) ;
#153 = CONICAL_SURFACE ( 'NONE', #126, 1.999999999999995337, 0.7853981633974516097 ) ;
#154 = EDGE_CURVE ( 'NONE', #28, #28, #107, .T. ) ;
#155 = APPLICATION_PROTOCOL_DEFINITION ( 'international standard', 'config_control_design', 1994, #209 ) ;
#156 = ORIENTED_EDGE ( 'NONE', *, *, #24, .F. ) ;
#157 = CARTESIAN_POINT ( 'NONE',  ( 4.813266925392180914E-14, 2.118999999999998440, 13.78574438260353752 ) ) ;
#158 = AXIS2_PLACEMENT_3D ( 'NONE', #175, #100, #152 ) ;
#159 = AXIS2_PLACEMENT_3D ( 'NONE', #14, #68, #105 ) ;
#160 = AXIS2_PLACEMENT_3D ( 'NONE', #114, #183, #226 ) ;
#161 = PRODUCT_DEFINITION ( 'UNKNOWN', '', #72, #140 ) ;
#162 = CARTESIAN_POINT ( 'NONE',  ( 4.885231259955590439E-14, -1.263712492114123682E-15, 13.99185842870425134 ) ) ;
#163 = CARTESIAN_POINT ( 'NONE',  ( 4.813266925392180914E-14, -1.245096745236403126E-15, 13.78574438260353752 ) ) ;
#164 = CIRCLE ( 'NONE', #189, 1.999999999999991784 ) ;
#165 = DIRECTION ( 'NONE',  ( -3.153425691349006731E-31, -1.000000000000000000, -9.031770143711729009E-17 ) ) ;
#166 = DIRECTION ( 'NONE',  ( 3.491481338843133355E-15, -9.031770143711729009E-17, 1.000000000000000000 ) ) ;
#167 = PERSON_AND_ORGANIZATION ( #131, #144 ) ;
#168 = CIRCLE ( 'NONE', #130, 1.599999999999994982 ) ;
#169 = AXIS2_PLACEMENT_3D ( 'NONE', #139, #11, #190 ) ;
#170 =( NAMED_UNIT ( * ) SI_UNIT ( $, .STERADIAN. ) SOLID_ANGLE_UNIT ( ) );
#171 = ADVANCED_FACE ( 'NONE', ( #145 ), #225, .T. ) ;
#172 = DATE_AND_TIME ( #25, #94 ) ;
#173 = DIRECTION ( 'NONE',  ( -3.491481338843133355E-15, -4.657449513482446847E-16, -1.000000000000000000 ) ) ;
#174 = ORIENTED_EDGE ( 'NONE', *, *, #89, .F. ) ;
#175 = CARTESIAN_POINT ( 'NONE',  ( -1.535124673786597069E-30, 1.888059892324148281, -4.396771813465412828E-16 ) ) ;
#176 = CC_DESIGN_PERSON_AND_ORGANIZATION_ASSIGNMENT ( #167, #12, ( #72 ) ) ;
#177 = VERTEX_POINT ( 'NONE', #32 ) ;
#178 = COORDINATED_UNIVERSAL_TIME_OFFSET ( 1, 0, .AHEAD. ) ;
#179 = APPROVAL_DATE_TIME ( #22, #227 ) ;
#180 = CC_DESIGN_APPROVAL ( #227, ( #116 ) ) ;
#181 = PRODUCT_RELATED_PRODUCT_CATEGORY ( 'detail', '', ( #98 ) ) ;
#182 = LOCAL_TIME ( 11, 2, 40.00000000000000000, #147 ) ;
#183 = DIRECTION ( 'NONE',  ( -3.491481338843133355E-15, -4.657449513482446847E-16, -1.000000000000000000 ) ) ;
#184 = PERSON_AND_ORGANIZATION ( #131, #144 ) ;
#185 = DIRECTION ( 'NONE',  ( -3.491481338843133355E-15, -4.657449513482446847E-16, -1.000000000000000000 ) ) ;
#186 = APPROVAL_PERSON_ORGANIZATION ( #30, #200, #96 ) ;
#187 = APPROVAL_STATUS ( 'not_yet_approved' ) ;
#188 =( NAMED_UNIT ( * ) PLANE_ANGLE_UNIT ( ) SI_UNIT ( $, .RADIAN. ) );
#189 = AXIS2_PLACEMENT_3D ( 'NONE', #162, #21, #5 ) ;
#190 = DIRECTION ( 'NONE',  ( 3.153425691349006731E-31, 1.000000000000000000, 9.031770143711729009E-17 ) ) ;
#191 = CARTESIAN_POINT ( 'NONE',  ( 3.070249347573194139E-30, 4.095548548703564506E-31, 8.793543626930825656E-16 ) ) ;
#192 = VERTEX_POINT ( 'NONE', #69 ) ;
#193 = AXIS2_PLACEMENT_3D ( 'NONE', #237, #122, #150 ) ;
#194 = APPROVAL_ROLE ( '' ) ;
#195 = ORIENTED_EDGE ( 'NONE', *, *, #239, .T. ) ;
#196 = LOCAL_TIME ( 11, 2, 40.00000000000000000, #178 ) ;
#197 = PERSON_AND_ORGANIZATION ( #131, #144 ) ;
#198 = EDGE_LOOP ( 'NONE', ( #236 ) ) ;
#199 = SECURITY_CLASSIFICATION_LEVEL ( 'unclassified' ) ;
#200 = APPROVAL ( #187, 'UNSPECIFIED' ) ;
#201 = CARTESIAN_POINT ( 'NONE',  ( 3.070249347573194139E-30, 4.095548548703564506E-31, 8.793543626930825656E-16 ) ) ;
#202 = APPROVAL_DATE_TIME ( #172, #200 ) ;
#203 = DIRECTION ( 'NONE',  ( 0.0000000000000000000, 1.000000000000000000, 0.0000000000000000000 ) ) ;
#204 = AXIS2_PLACEMENT_3D ( 'NONE', #97, #8, #148 ) ;
#205 = UNCERTAINTY_MEASURE_WITH_UNIT (LENGTH_MEASURE( 1.000000000000000082E-05 ), #81, 'distance_accuracy_value', 'NONE');
#206 = ADVANCED_FACE ( 'NONE', ( #108, #104 ), #44, .T. ) ;
#207 = PRODUCT_DEFINITION_SHAPE ( 'NONE', 'NONE',  #161 ) ;
#208 = MANIFOLD_SOLID_BREP ( 'Corps-Déplacer/Copier1[2]', #43 ) ;
#209 = APPLICATION_CONTEXT ( 'configuration controlled 3d designs of mechanical parts and assemblies' ) ;
#210 = APPROVAL ( #125, 'UNSPECIFIED' ) ;
#211 = MECHANICAL_CONTEXT ( 'NONE', #27, 'mechanical' ) ;
#212 = DIRECTION ( 'NONE',  ( 1.000000000000000000, 0.0000000000000000000, 0.0000000000000000000 ) ) ;
#213 = PERSON_AND_ORGANIZATION ( #131, #144 ) ;
#214 = CARTESIAN_POINT ( 'NONE',  ( 2.793185071074506684E-13, 1.599999999999987876, 80.00000000000000000 ) ) ;
#215 = ADVANCED_FACE ( 'NONE', ( #82 ), #233, .T. ) ;
#216 = LOCAL_TIME ( 11, 2, 40.00000000000000000, #143 ) ;
#217 = FACE_OUTER_BOUND ( 'NONE', #198, .T. ) ;
#218 = CALENDAR_DATE ( 2021, 26, 11 ) ;
#219 = EDGE_LOOP ( 'NONE', ( #83 ) ) ;
#220 = EDGE_CURVE ( 'NONE', #34, #34, #51, .T. ) ;
#221 = EDGE_LOOP ( 'NONE', ( #174 ) ) ;
#222 = CYLINDRICAL_SURFACE ( 'NONE', #204, 2.118999999999994888 ) ;
#223 = APPROVAL_PERSON_ORGANIZATION ( #184, #227, #76 ) ;
#224 = FACE_OUTER_BOUND ( 'NONE', #53, .T. ) ;
#225 = PLANE ( 'NONE',  #141 ) ;
#226 = DIRECTION ( 'NONE',  ( -2.908435970759404730E-30, 1.000000000000000000, -8.186519471339376214E-16 ) ) ;
#227 = APPROVAL ( #2, 'UNSPECIFIED' ) ;
#228 = AXIS2_PLACEMENT_3D ( 'NONE', #163, #78, #203 ) ;
#229 = FACE_BOUND ( 'NONE', #10, .T. ) ;
#230 = PERSON_AND_ORGANIZATION_ROLE ( 'creator' ) ;
#231 = ADVANCED_BREP_SHAPE_REPRESENTATION ( '321327', ( #49, #208, #65 ), #45 ) ;
#232 = ORIENTED_EDGE ( 'NONE', *, *, #102, .F. ) ;
#233 = PLANE ( 'NONE',  #158 ) ;
#234 = VERTEX_POINT ( 'NONE', #70 ) ;
#235 = DATE_AND_TIME ( #40, #182 ) ;
#236 = ORIENTED_EDGE ( 'NONE', *, *, #24, .T. ) ;
#237 = CARTESIAN_POINT ( 'NONE',  ( 2.779219145719134403E-13, -7.189289034394536528E-15, 79.60000000000000853 ) ) ;
#238 = VERTEX_POINT ( 'NONE', #46 ) ;
#239 = EDGE_CURVE ( 'NONE', #177, #177, #35, .T. ) ;
#240 = CARTESIAN_POINT ( 'NONE',  ( 4.813266925392180282E-14, 2.118999999999998440, 13.78574438260353574 ) ) ;
#241 = DIRECTION ( 'NONE',  ( 3.153425691349006731E-31, 1.000000000000000000, 9.031770143711729009E-17 ) ) ;
#242 = PERSON_AND_ORGANIZATION_ROLE ( 'classification_officer' ) ;
#243 = ORIENTED_EDGE ( 'NONE', *, *, #220, .F. ) ;
ENDSEC;
END-ISO-10303-21;
