ISO-10303-21;
HEADER;
FILE_DESCRIPTION (( 'STEP AP203' ),
    '1' );
FILE_NAME ('321326.step',
    '2021-11-26T10:02:39',
    ( '' ),
    ( '' ),
    'SwSTEP 2.0',
    'SolidWorks 2019',
    '' );
FILE_SCHEMA (( 'CONFIG_CONTROL_DESIGN' ));
ENDSEC;

DATA;
#1 = EDGE_LOOP ( 'NONE', ( #226 ) ) ;
#2 = AXIS2_PLACEMENT_3D ( 'NONE', #157, #174, #5 ) ;
#3 = CARTESIAN_POINT ( 'NONE',  ( 4.816290636928459049E-14, 6.418519696297570554E-15, 13.79440463664138505 ) ) ;
#4 = ORIENTED_EDGE ( 'NONE', *, *, #64, .F. ) ;
#5 = DIRECTION ( 'NONE',  ( -1.624582019516313760E-30, 1.000000000000000000, -4.652987834827157910E-16 ) ) ;
#6 = CC_DESIGN_APPROVAL ( #23, ( #20 ) ) ;
#7 = EDGE_LOOP ( 'NONE', ( #4 ) ) ;
#8 = EDGE_LOOP ( 'NONE', ( #171 ) ) ;
#9 = COORDINATED_UNIVERSAL_TIME_OFFSET ( 1, 0, .AHEAD. ) ;
#10 = FACE_OUTER_BOUND ( 'NONE', #14, .T. ) ;
#11 = FACE_BOUND ( 'NONE', #179, .T. ) ;
#12 = VERTEX_POINT ( 'NONE', #55 ) ;
#13 = PERSON_AND_ORGANIZATION ( #42, #202 ) ;
#14 = EDGE_LOOP ( 'NONE', ( #161 ) ) ;
#15 = ADVANCED_FACE ( 'NONE', ( #101 ), #102, .T. ) ;
#16 = PERSON_AND_ORGANIZATION_ROLE ( 'design_owner' ) ;
#17 = CARTESIAN_POINT ( 'NONE',  ( 4.816290636928458418E-14, -1.245878919474962817E-15, 13.79440463664138328 ) ) ;
#18 = DIRECTION ( 'NONE',  ( 0.0000000000000000000, 1.000000000000000000, 0.0000000000000000000 ) ) ;
#19 = DATE_TIME_ROLE ( 'classification_date' ) ;
#20 = PRODUCT_DEFINITION ( 'UNKNOWN', '', #196, #109 ) ;
#21 = AXIS2_PLACEMENT_3D ( 'NONE', #82, #222, #67 ) ;
#22 = AXIS2_PLACEMENT_3D ( 'NONE', #3, #27, #46 ) ;
#23 = APPROVAL ( #164, 'UNSPECIFIED' ) ;
#24 = APPROVAL ( #168, 'UNSPECIFIED' ) ;
#25 = CARTESIAN_POINT ( 'NONE',  ( 4.816290636928459049E-14, 2.113999999999998103, 13.79440463664138505 ) ) ;
#26 = DIRECTION ( 'NONE',  ( -3.491481338843133355E-15, 9.031770143711729009E-17, -1.000000000000000000 ) ) ;
#27 = DIRECTION ( 'NONE',  ( 3.491481338843133355E-15, 4.652987834827157910E-16, 1.000000000000000000 ) ) ;
#28 = ORIENTED_EDGE ( 'NONE', *, *, #108, .F. ) ;
#29 = APPROVAL_ROLE ( '' ) ;
#30 = CC_DESIGN_PERSON_AND_ORGANIZATION_ASSIGNMENT ( #53, #58, ( #196 ) ) ;
#31 = SECURITY_CLASSIFICATION ( '', '', #198 ) ;
#32 = CARTESIAN_POINT ( 'NONE',  ( 4.885231259955590439E-14, 1.999999999999990452, 13.99185842870425134 ) ) ;
#33 = PLANE ( 'NONE',  #49 ) ;
#34 = DIRECTION ( 'NONE',  ( 0.0000000000000000000, 1.000000000000000000, 0.0000000000000000000 ) ) ;
#35 = APPROVAL_ROLE ( '' ) ;
#36 = CONICAL_SURFACE ( 'NONE', #88, 1.999999999999995337, 0.7853981633974516097 ) ;
#37 = VERTEX_POINT ( 'NONE', #32 ) ;
#38 = CARTESIAN_POINT ( 'NONE',  ( 3.059185242742137817E-30, 4.076880366107968820E-31, 8.761854771235202452E-16 ) ) ;
#39 = PERSON_AND_ORGANIZATION ( #42, #202 ) ;
#40 = CALENDAR_DATE ( 2021, 26, 11 ) ;
#41 = AXIS2_PLACEMENT_3D ( 'NONE', #79, #209, #194 ) ;
#42 = PERSON ( 'UNSPECIFIED', 'UNSPECIFIED', 'UNSPECIFIED', ('UNSPECIFIED'), ('UNSPECIFIED'), ('UNSPECIFIED') ) ;
#43 = DIRECTION ( 'NONE',  ( 1.000000000000000000, 0.0000000000000000000, 0.0000000000000000000 ) ) ;
#44 = ADVANCED_FACE ( 'NONE', ( #68, #191 ), #121, .T. ) ;
#45 = CC_DESIGN_APPROVAL ( #117, ( #196 ) ) ;
#46 = DIRECTION ( 'NONE',  ( 1.624582019516313760E-30, -1.000000000000000000, 4.652987834827157910E-16 ) ) ;
#47 = PERSON_AND_ORGANIZATION ( #42, #202 ) ;
#48 = ORIENTED_EDGE ( 'NONE', *, *, #108, .T. ) ;
#49 = AXIS2_PLACEMENT_3D ( 'NONE', #216, #123, #181 ) ;
#50 = FACE_OUTER_BOUND ( 'NONE', #8, .T. ) ;
#51 = ADVANCED_FACE ( 'NONE', ( #86 ), #203, .T. ) ;
#52 = CARTESIAN_POINT ( 'NONE',  ( 2.793185071074506684E-13, -7.225416114969383207E-15, 80.00000000000000000 ) ) ;
#53 = PERSON_AND_ORGANIZATION ( #42, #202 ) ;
#54 = APPLICATION_CONTEXT ( 'configuration controlled 3d designs of mechanical parts and assemblies' ) ;
#55 = CARTESIAN_POINT ( 'NONE',  ( 2.779219145719134403E-13, 1.999999999999988010, 79.60000000000000853 ) ) ;
#56 = AXIS2_PLACEMENT_3D ( 'NONE', #17, #162, #34 ) ;
#57 = CARTESIAN_POINT ( 'NONE',  ( 0.0000000000000000000, 0.0000000000000000000, 0.0000000000000000000 ) ) ;
#58 = PERSON_AND_ORGANIZATION_ROLE ( 'design_supplier' ) ;
#59 = DIRECTION ( 'NONE',  ( -3.491481338843133355E-15, -4.652987834827157910E-16, -1.000000000000000000 ) ) ;
#60 = PERSON_AND_ORGANIZATION ( #42, #202 ) ;
#61 = EDGE_CURVE ( 'NONE', #74, #74, #155, .T. ) ;
#62 = AXIS2_PLACEMENT_3D ( 'NONE', #25, #223, #87 ) ;
#63 = COORDINATED_UNIVERSAL_TIME_OFFSET ( 1, 0, .AHEAD. ) ;
#64 = EDGE_CURVE ( 'NONE', #75, #75, #126, .T. ) ;
#65 = EDGE_LOOP ( 'NONE', ( #241 ) ) ;
#66 = AXIS2_PLACEMENT_3D ( 'NONE', #106, #212, #94 ) ;
#67 = DIRECTION ( 'NONE',  ( 1.624582019516313760E-30, -1.000000000000000000, 4.652987834827157910E-16 ) ) ;
#68 = FACE_OUTER_BOUND ( 'NONE', #159, .T. ) ;
#69 = CARTESIAN_POINT ( 'NONE',  ( 1.396592535537256300E-15, 1.861195133930867306E-16, 0.4000000000000009104 ) ) ;
#70 = AXIS2_PLACEMENT_3D ( 'NONE', #225, #71, #18 ) ;
#71 = DIRECTION ( 'NONE',  ( -3.491481338843133355E-15, 9.031770143711729009E-17, -1.000000000000000000 ) ) ;
#72 =( NAMED_UNIT ( * ) SI_UNIT ( $, .STERADIAN. ) SOLID_ANGLE_UNIT ( ) );
#73 = EDGE_LOOP ( 'NONE', ( #134 ) ) ;
#74 = VERTEX_POINT ( 'NONE', #197 ) ;
#75 = VERTEX_POINT ( 'NONE', #89 ) ;
#76 = PERSON_AND_ORGANIZATION_ROLE ( 'creator' ) ;
#77 = ORIENTED_EDGE ( 'NONE', *, *, #227, .F. ) ;
#78 = CIRCLE ( 'NONE', #41, 2.113999999999991886 ) ;
#79 = CARTESIAN_POINT ( 'NONE',  ( 4.816290636928459049E-14, 6.418519696297570554E-15, 13.79440463664138505 ) ) ;
#80 = CC_DESIGN_PERSON_AND_ORGANIZATION_ASSIGNMENT ( #13, #76, ( #196 ) ) ;
#81 = SHAPE_DEFINITION_REPRESENTATION ( #204, #115 ) ;
#82 = CARTESIAN_POINT ( 'NONE',  ( 3.059185242742137817E-30, 4.076880366107968820E-31, 8.761854771235202452E-16 ) ) ;
#83 = CALENDAR_DATE ( 2021, 26, 11 ) ;
#84 = APPLICATION_PROTOCOL_DEFINITION ( 'international standard', 'config_control_design', 1994, #54 ) ;
#85 = PLANE ( 'NONE',  #2 ) ;
#86 = FACE_OUTER_BOUND ( 'NONE', #135, .T. ) ;
#87 = DIRECTION ( 'NONE',  ( 3.153425691349006731E-31, 1.000000000000000000, 9.031770143711729009E-17 ) ) ;
#88 = AXIS2_PLACEMENT_3D ( 'NONE', #183, #127, #180 ) ;
#89 = CARTESIAN_POINT ( 'NONE',  ( 1.396592535537252948E-15, 2.113999999999998547, 0.3999999999999999112 ) ) ;
#90 = CARTESIAN_POINT ( 'NONE',  ( 0.0000000000000000000, 0.0000000000000000000, 0.0000000000000000000 ) ) ;
#91 = APPROVAL_PERSON_ORGANIZATION ( #107, #24, #147 ) ;
#92 = CARTESIAN_POINT ( 'NONE',  ( -3.421138828918010427E-46, 1.883059892324148832, 0.0000000000000000000 ) ) ;
#93 = APPLICATION_PROTOCOL_DEFINITION ( 'international standard', 'config_control_design', 1994, #149 ) ;
#94 = DIRECTION ( 'NONE',  ( 0.0000000000000000000, 1.000000000000000000, 0.0000000000000000000 ) ) ;
#95 = EDGE_LOOP ( 'NONE', ( #77 ) ) ;
#96 = APPROVAL_DATE_TIME ( #242, #23 ) ;
#97 = VERTEX_POINT ( 'NONE', #195 ) ;
#98 = ORIENTED_EDGE ( 'NONE', *, *, #148, .T. ) ;
#99 = DIRECTION ( 'NONE',  ( 0.0000000000000000000, 1.000000000000000000, 0.0000000000000000000 ) ) ;
#100 = CC_DESIGN_APPROVAL ( #24, ( #31 ) ) ;
#101 = FACE_OUTER_BOUND ( 'NONE', #141, .T. ) ;
#102 = PLANE ( 'NONE',  #62 ) ;
#103 = LOCAL_TIME ( 11, 2, 39.00000000000000000, #128 ) ;
#104 = ADVANCED_FACE ( 'NONE', ( #205 ), #85, .T. ) ;
#105 = DIRECTION ( 'NONE',  ( 0.0000000000000000000, 1.000000000000000000, 0.0000000000000000000 ) ) ;
#106 = CARTESIAN_POINT ( 'NONE',  ( 4.885231259955590439E-14, -1.263712492114123682E-15, 13.99185842870425134 ) ) ;
#107 = PERSON_AND_ORGANIZATION ( #42, #202 ) ;
#108 = EDGE_CURVE ( 'NONE', #12, #12, #139, .T. ) ;
#109 = DESIGN_CONTEXT ( 'detailed design', #149, 'design' ) ;
#110 =( LENGTH_UNIT ( ) NAMED_UNIT ( * ) SI_UNIT ( .MILLI., .METRE. ) );
#111 = CALENDAR_DATE ( 2021, 26, 11 ) ;
#112 = COORDINATED_UNIVERSAL_TIME_OFFSET ( 1, 0, .AHEAD. ) ;
#113 = AXIS2_PLACEMENT_3D ( 'NONE', #69, #158, #172 ) ;
#114 = ADVANCED_FACE ( 'NONE', ( #210, #125 ), #36, .T. ) ;
#115 = ADVANCED_BREP_SHAPE_REPRESENTATION ( '321326', ( #206, #207, #136 ), #116 ) ;
#116 =( GEOMETRIC_REPRESENTATION_CONTEXT ( 3 ) GLOBAL_UNCERTAINTY_ASSIGNED_CONTEXT ( ( #177 ) ) GLOBAL_UNIT_ASSIGNED_CONTEXT ( ( #110, #167, #72 ) ) REPRESENTATION_CONTEXT ( 'NONE', 'WORKASPACE' ) );
#117 = APPROVAL ( #236, 'UNSPECIFIED' ) ;
#118 = EDGE_LOOP ( 'NONE', ( #48 ) ) ;
#119 = LOCAL_TIME ( 11, 2, 39.00000000000000000, #217 ) ;
#120 = ORIENTED_EDGE ( 'NONE', *, *, #61, .T. ) ;
#121 = CONICAL_SURFACE ( 'NONE', #21, 1.883059892324148832, 0.5235987755982979275 ) ;
#122 = CALENDAR_DATE ( 2021, 26, 11 ) ;
#123 = DIRECTION ( 'NONE',  ( 3.491481338843133355E-15, -9.031770143711729009E-17, 1.000000000000000000 ) ) ;
#124 = CYLINDRICAL_SURFACE ( 'NONE', #176, 2.113999999999995438 ) ;
#125 = FACE_OUTER_BOUND ( 'NONE', #220, .T. ) ;
#126 = CIRCLE ( 'NONE', #113, 2.113999999999998547 ) ;
#127 = DIRECTION ( 'NONE',  ( -3.491481338843133355E-15, 9.031770143711729009E-17, -1.000000000000000000 ) ) ;
#128 = COORDINATED_UNIVERSAL_TIME_OFFSET ( 1, 0, .AHEAD. ) ;
#129 = PERSON_AND_ORGANIZATION ( #42, #202 ) ;
#130 = ADVANCED_FACE ( 'NONE', ( #165 ), #33, .T. ) ;
#131 = AXIS2_PLACEMENT_3D ( 'NONE', #189, #26, #99 ) ;
#132 = CC_DESIGN_DATE_AND_TIME_ASSIGNMENT ( #156, #182, ( #20 ) ) ;
#133 = LOCAL_TIME ( 11, 2, 39.00000000000000000, #9 ) ;
#134 = ORIENTED_EDGE ( 'NONE', *, *, #227, .T. ) ;
#135 = EDGE_LOOP ( 'NONE', ( #239 ) ) ;
#136 = AXIS2_PLACEMENT_3D ( 'NONE', #150, #219, #43 ) ;
#137 = ADVANCED_FACE ( 'NONE', ( #142, #237 ), #229, .T. ) ;
#138 = FACE_OUTER_BOUND ( 'NONE', #7, .T. ) ;
#139 = CIRCLE ( 'NONE', #70, 1.999999999999995337 ) ;
#140 = CC_DESIGN_PERSON_AND_ORGANIZATION_ASSIGNMENT ( #39, #240, ( #31 ) ) ;
#141 = EDGE_LOOP ( 'NONE', ( #120 ) ) ;
#142 = FACE_OUTER_BOUND ( 'NONE', #118, .T. ) ;
#143 = CARTESIAN_POINT ( 'NONE',  ( 4.816290636928458418E-14, 2.113999999999998103, 13.79440463664138328 ) ) ;
#144 = DATE_AND_TIME ( #40, #103 ) ;
#145 = CONICAL_SURFACE ( 'NONE', #56, 2.113999999999999435, 0.5235987755982919323 ) ;
#146 = DIRECTION ( 'NONE',  ( -3.491481338843133355E-15, 9.031770143711729009E-17, -1.000000000000000000 ) ) ;
#147 = APPROVAL_ROLE ( '' ) ;
#148 = EDGE_CURVE ( 'NONE', #235, #235, #201, .T. ) ;
#149 = APPLICATION_CONTEXT ( 'configuration controlled 3d designs of mechanical parts and assemblies' ) ;
#150 = CARTESIAN_POINT ( 'NONE',  ( 0.0000000000000000000, 0.0000000000000000000, 0.0000000000000000000 ) ) ;
#151 = CIRCLE ( 'NONE', #231, 1.599999999999994982 ) ;
#152 = ADVANCED_FACE ( 'NONE', ( #10, #138 ), #124, .T. ) ;
#153 = PRODUCT_RELATED_PRODUCT_CATEGORY ( 'detail', '', ( #154 ) ) ;
#154 = PRODUCT ( '321326', '321326', '', ( #188 ) ) ;
#155 = CIRCLE ( 'NONE', #131, 2.113999999999999435 ) ;
#156 = DATE_AND_TIME ( #83, #187 ) ;
#157 = CARTESIAN_POINT ( 'NONE',  ( -1.529592621371068908E-30, 1.883059892324148832, -4.380927385617601226E-16 ) ) ;
#158 = DIRECTION ( 'NONE',  ( -3.491481338843133355E-15, -4.652987834827157910E-16, -1.000000000000000000 ) ) ;
#159 = EDGE_LOOP ( 'NONE', ( #166 ) ) ;
#160 = EDGE_CURVE ( 'NONE', #233, #233, #78, .T. ) ;
#161 = ORIENTED_EDGE ( 'NONE', *, *, #160, .T. ) ;
#162 = DIRECTION ( 'NONE',  ( -3.491481338843133355E-15, 9.031770143711729009E-17, -1.000000000000000000 ) ) ;
#163 = AXIS2_PLACEMENT_3D ( 'NONE', #38, #59, #192 ) ;
#164 = APPROVAL_STATUS ( 'not_yet_approved' ) ;
#165 = FACE_OUTER_BOUND ( 'NONE', #95, .T. ) ;
#166 = ORIENTED_EDGE ( 'NONE', *, *, #64, .T. ) ;
#167 =( NAMED_UNIT ( * ) PLANE_ANGLE_UNIT ( ) SI_UNIT ( $, .RADIAN. ) );
#168 = APPROVAL_STATUS ( 'not_yet_approved' ) ;
#169 = CC_DESIGN_SECURITY_CLASSIFICATION ( #31, ( #196 ) ) ;
#170 = APPROVAL_DATE_TIME ( #185, #24 ) ;
#171 = ORIENTED_EDGE ( 'NONE', *, *, #61, .F. ) ;
#172 = DIRECTION ( 'NONE',  ( -1.639864664095093059E-30, 1.000000000000000000, -4.615808681347940432E-16 ) ) ;
#173 = EDGE_LOOP ( 'NONE', ( #98 ) ) ;
#174 = DIRECTION ( 'NONE',  ( -3.491481338843133355E-15, -4.652987834827157910E-16, -1.000000000000000000 ) ) ;
#175 = CC_DESIGN_PERSON_AND_ORGANIZATION_ASSIGNMENT ( #47, #16, ( #154 ) ) ;
#176 = AXIS2_PLACEMENT_3D ( 'NONE', #57, #193, #213 ) ;
#177 = UNCERTAINTY_MEASURE_WITH_UNIT (LENGTH_MEASURE( 1.000000000000000082E-05 ), #110, 'distance_accuracy_value', 'NONE');
#178 = DIRECTION ( 'NONE',  ( 3.153425691349006731E-31, 1.000000000000000000, 9.031770143711729009E-17 ) ) ;
#179 = EDGE_LOOP ( 'NONE', ( #228 ) ) ;
#180 = DIRECTION ( 'NONE',  ( 0.0000000000000000000, 1.000000000000000000, 0.0000000000000000000 ) ) ;
#181 = DIRECTION ( 'NONE',  ( -3.153425691349006731E-31, -1.000000000000000000, -9.031770143711729009E-17 ) ) ;
#182 = DATE_TIME_ROLE ( 'creation_date' ) ;
#183 = CARTESIAN_POINT ( 'NONE',  ( 2.779219145719134403E-13, -7.189289034394536528E-15, 79.60000000000000853 ) ) ;
#184 = DATE_AND_TIME ( #111, #221 ) ;
#185 = DATE_AND_TIME ( #200, #119 ) ;
#186 = AXIS2_PLACEMENT_3D ( 'NONE', #90, #146, #178 ) ;
#187 = LOCAL_TIME ( 11, 2, 39.00000000000000000, #63 ) ;
#188 = MECHANICAL_CONTEXT ( 'NONE', #54, 'mechanical' ) ;
#189 = CARTESIAN_POINT ( 'NONE',  ( 4.816290636928458418E-14, -1.245878919474962817E-15, 13.79440463664138328 ) ) ;
#190 = CIRCLE ( 'NONE', #66, 1.999999999999991784 ) ;
#191 = FACE_BOUND ( 'NONE', #1, .T. ) ;
#192 = DIRECTION ( 'NONE',  ( -1.624582019516313760E-30, 1.000000000000000000, -4.652987834827157910E-16 ) ) ;
#193 = DIRECTION ( 'NONE',  ( -3.491481338843133355E-15, -4.652987834827157910E-16, -1.000000000000000000 ) ) ;
#194 = DIRECTION ( 'NONE',  ( -2.915314958391285735E-30, 1.000000000000000000, -8.205882100174142180E-16 ) ) ;
#195 = CARTESIAN_POINT ( 'NONE',  ( 2.793185071074506684E-13, 1.599999999999987876, 80.00000000000000000 ) ) ;
#196 = PRODUCT_DEFINITION_FORMATION_WITH_SPECIFIED_SOURCE ( 'ANY', '', #154, .NOT_KNOWN. ) ;
#197 = CARTESIAN_POINT ( 'NONE',  ( 4.816290636928458418E-14, 2.113999999999998103, 13.79440463664138328 ) ) ;
#198 = SECURITY_CLASSIFICATION_LEVEL ( 'unclassified' ) ;
#199 = ADVANCED_FACE ( 'NONE', ( #11, #50 ), #145, .T. ) ;
#200 = CALENDAR_DATE ( 2021, 26, 11 ) ;
#201 = CIRCLE ( 'NONE', #163, 1.883059892324148832 ) ;
#202 = ORGANIZATION ( 'UNSPECIFIED', 'UNSPECIFIED', '' ) ;
#203 = PLANE ( 'NONE',  #22 ) ;
#204 = PRODUCT_DEFINITION_SHAPE ( 'NONE', 'NONE',  #20 ) ;
#205 = FACE_OUTER_BOUND ( 'NONE', #173, .T. ) ;
#206 = MANIFOLD_SOLID_BREP ( 'Corps-Déplacer/Copier1[1]', #224 ) ;
#207 = MANIFOLD_SOLID_BREP ( 'Corps-Déplacer/Copier1[2]', #208 ) ;
#208 = CLOSED_SHELL ( 'NONE', ( #51, #152, #44, #104 ) ) ;
#209 = DIRECTION ( 'NONE',  ( -3.491481338843133355E-15, -4.652987834827157910E-16, -1.000000000000000000 ) ) ;
#210 = FACE_BOUND ( 'NONE', #73, .T. ) ;
#211 = PERSON_AND_ORGANIZATION ( #42, #202 ) ;
#212 = DIRECTION ( 'NONE',  ( -3.491481338843133355E-15, 9.031770143711729009E-17, -1.000000000000000000 ) ) ;
#213 = DIRECTION ( 'NONE',  ( -1.624582019516313410E-30, 1.000000000000000000, -4.652987834827156924E-16 ) ) ;
#214 = APPROVAL_DATE_TIME ( #144, #117 ) ;
#215 = APPROVAL_PERSON_ORGANIZATION ( #60, #117, #35 ) ;
#216 = CARTESIAN_POINT ( 'NONE',  ( 2.793185071074506684E-13, -7.225416114969383207E-15, 80.00000000000000000 ) ) ;
#217 = COORDINATED_UNIVERSAL_TIME_OFFSET ( 1, 0, .AHEAD. ) ;
#218 = CC_DESIGN_PERSON_AND_ORGANIZATION_ASSIGNMENT ( #129, #243, ( #20 ) ) ;
#219 = DIRECTION ( 'NONE',  ( 0.0000000000000000000, 0.0000000000000000000, 1.000000000000000000 ) ) ;
#220 = EDGE_LOOP ( 'NONE', ( #28 ) ) ;
#221 = LOCAL_TIME ( 11, 2, 39.00000000000000000, #112 ) ;
#222 = DIRECTION ( 'NONE',  ( 3.491481338843133355E-15, 4.652987834827157910E-16, 1.000000000000000000 ) ) ;
#223 = DIRECTION ( 'NONE',  ( -3.491481338843133355E-15, 9.031770143711729009E-17, -1.000000000000000000 ) ) ;
#224 = CLOSED_SHELL ( 'NONE', ( #130, #114, #137, #199, #15 ) ) ;
#225 = CARTESIAN_POINT ( 'NONE',  ( 2.779219145719134403E-13, -7.189289034394536528E-15, 79.60000000000000853 ) ) ;
#226 = ORIENTED_EDGE ( 'NONE', *, *, #148, .F. ) ;
#227 = EDGE_CURVE ( 'NONE', #97, #97, #151, .T. ) ;
#228 = ORIENTED_EDGE ( 'NONE', *, *, #234, .T. ) ;
#229 = CYLINDRICAL_SURFACE ( 'NONE', #186, 1.999999999999993561 ) ;
#230 = CC_DESIGN_DATE_AND_TIME_ASSIGNMENT ( #184, #19, ( #31 ) ) ;
#231 = AXIS2_PLACEMENT_3D ( 'NONE', #52, #232, #105 ) ;
#232 = DIRECTION ( 'NONE',  ( -3.491481338843133355E-15, 9.031770143711729009E-17, -1.000000000000000000 ) ) ;
#233 = VERTEX_POINT ( 'NONE', #143 ) ;
#234 = EDGE_CURVE ( 'NONE', #37, #37, #190, .T. ) ;
#235 = VERTEX_POINT ( 'NONE', #92 ) ;
#236 = APPROVAL_STATUS ( 'not_yet_approved' ) ;
#237 = FACE_OUTER_BOUND ( 'NONE', #65, .T. ) ;
#238 = APPROVAL_PERSON_ORGANIZATION ( #211, #23, #29 ) ;
#239 = ORIENTED_EDGE ( 'NONE', *, *, #160, .F. ) ;
#240 = PERSON_AND_ORGANIZATION_ROLE ( 'classification_officer' ) ;
#241 = ORIENTED_EDGE ( 'NONE', *, *, #234, .F. ) ;
#242 = DATE_AND_TIME ( #122, #133 ) ;
#243 = PERSON_AND_ORGANIZATION_ROLE ( 'creator' ) ;
ENDSEC;
END-ISO-10303-21;
