ISO-10303-21;
HEADER;
FILE_DESCRIPTION (( 'STEP AP203' ),
    '1' );
FILE_NAME ('321325.step',
    '2021-11-26T10:02:39',
    ( '' ),
    ( '' ),
    'SwSTEP 2.0',
    'SolidWorks 2019',
    '' );
FILE_SCHEMA (( 'CONFIG_CONTROL_DESIGN' ));
ENDSEC;

DATA;
#1 = DIRECTION ( 'NONE',  ( 0.0000000000000000000, 1.000000000000000000, 0.0000000000000000000 ) ) ;
#2 = APPLICATION_CONTEXT ( 'configuration controlled 3d designs of mechanical parts and assemblies' ) ;
#3 = EDGE_CURVE ( 'NONE', #140, #140, #232, .T. ) ;
#4 = CALENDAR_DATE ( 2021, 26, 11 ) ;
#5 = COORDINATED_UNIVERSAL_TIME_OFFSET ( 1, 0, .AHEAD. ) ;
#6 = AXIS2_PLACEMENT_3D ( 'NONE', #37, #161, #22 ) ;
#7 = CC_DESIGN_SECURITY_CLASSIFICATION ( #178, ( #28 ) ) ;
#8 = APPROVAL_ROLE ( '' ) ;
#9 = CC_DESIGN_PERSON_AND_ORGANIZATION_ASSIGNMENT ( #110, #230, ( #28 ) ) ;
#10 = DIRECTION ( 'NONE',  ( 1.623026187498329915E-30, -1.000000000000000000, 4.648531754822734379E-16 ) ) ;
#11 = ADVANCED_FACE ( 'NONE', ( #69, #130 ), #138, .T. ) ;
#12 = DIRECTION ( 'NONE',  ( -3.491481338843133355E-15, 9.031770143711729009E-17, -1.000000000000000000 ) ) ;
#13 = AXIS2_PLACEMENT_3D ( 'NONE', #93, #29, #171 ) ;
#14 = FACE_OUTER_BOUND ( 'NONE', #44, .T. ) ;
#15 = ORIENTED_EDGE ( 'NONE', *, *, #132, .F. ) ;
#16 = DIRECTION ( 'NONE',  ( 3.153425691349006731E-31, 1.000000000000000000, 9.031770143711729009E-17 ) ) ;
#17 = CC_DESIGN_APPROVAL ( #57, ( #28 ) ) ;
#18 = CC_DESIGN_APPROVAL ( #36, ( #178 ) ) ;
#19 = CARTESIAN_POINT ( 'NONE',  ( 4.819314348464736553E-14, 6.416398545820118888E-15, 13.80306489067922904 ) ) ;
#20 = ADVANCED_FACE ( 'NONE', ( #220, #136 ), #116, .T. ) ;
#21 = CARTESIAN_POINT ( 'NONE',  ( 3.048140386932388310E-30, 4.058270976326552367E-31, 8.730221046927772823E-16 ) ) ;
#22 = DIRECTION ( 'NONE',  ( -1.623026187498329915E-30, 1.000000000000000000, -4.648531754822734379E-16 ) ) ;
#23 = AXIS2_PLACEMENT_3D ( 'NONE', #32, #237, #183 ) ;
#24 = ORIENTED_EDGE ( 'NONE', *, *, #208, .T. ) ;
#25 = AXIS2_PLACEMENT_3D ( 'NONE', #117, #239, #52 ) ;
#26 = EDGE_LOOP ( 'NONE', ( #15 ) ) ;
#27 = EDGE_LOOP ( 'NONE', ( #206 ) ) ;
#28 = PRODUCT_DEFINITION_FORMATION_WITH_SPECIFIED_SOURCE ( 'ANY', '', #54, .NOT_KNOWN. ) ;
#29 = DIRECTION ( 'NONE',  ( 3.491481338843133355E-15, 4.648531754822734379E-16, 1.000000000000000000 ) ) ;
#30 = PRODUCT_DEFINITION ( 'UNKNOWN', '', #28, #102 ) ;
#31 = DIRECTION ( 'NONE',  ( -3.491481338843133355E-15, -4.648531754822734379E-16, -1.000000000000000000 ) ) ;
#32 = CARTESIAN_POINT ( 'NONE',  ( 4.819314348464735922E-14, -1.246661093713522507E-15, 13.80306489067922726 ) ) ;
#33 = DIRECTION ( 'NONE',  ( 3.153425691349006731E-31, 1.000000000000000000, 9.031770143711729009E-17 ) ) ;
#34 = PRODUCT_DEFINITION_SHAPE ( 'NONE', 'NONE',  #30 ) ;
#35 = DIRECTION ( 'NONE',  ( -2.922226563318718811E-30, 1.000000000000000000, -8.225336538533966982E-16 ) ) ;
#36 = APPROVAL ( #88, 'UNSPECIFIED' ) ;
#37 = CARTESIAN_POINT ( 'NONE',  ( -1.524070193466194155E-30, 1.878059892324149160, -4.365110523463886411E-16 ) ) ;
#38 = APPROVAL_STATUS ( 'not_yet_approved' ) ;
#39 = CC_DESIGN_PERSON_AND_ORGANIZATION_ASSIGNMENT ( #126, #66, ( #30 ) ) ;
#40 = DIRECTION ( 'NONE',  ( -3.491481338843133355E-15, 9.031770143711729009E-17, -1.000000000000000000 ) ) ;
#41 = VERTEX_POINT ( 'NONE', #100 ) ;
#42 = AXIS2_PLACEMENT_3D ( 'NONE', #72, #204, #16 ) ;
#43 = DATE_AND_TIME ( #142, #128 ) ;
#44 = EDGE_LOOP ( 'NONE', ( #106 ) ) ;
#45 = PERSON_AND_ORGANIZATION ( #164, #194 ) ;
#46 = CIRCLE ( 'NONE', #84, 1.999999999999995337 ) ;
#47 = DATE_AND_TIME ( #125, #236 ) ;
#48 = PERSON_AND_ORGANIZATION_ROLE ( 'design_supplier' ) ;
#49 = EDGE_LOOP ( 'NONE', ( #89 ) ) ;
#50 = CIRCLE ( 'NONE', #145, 2.108999999999999098 ) ;
#51 = CARTESIAN_POINT ( 'NONE',  ( 2.779219145719134403E-13, -7.189289034394536528E-15, 79.60000000000000853 ) ) ;
#52 = DIRECTION ( 'NONE',  ( -3.153425691349006731E-31, -1.000000000000000000, -9.031770143711729009E-17 ) ) ;
#53 = DIRECTION ( 'NONE',  ( 0.0000000000000000000, 1.000000000000000000, 0.0000000000000000000 ) ) ;
#54 = PRODUCT ( '321325', '321325', '', ( #190 ) ) ;
#55 = DIRECTION ( 'NONE',  ( -3.491481338843133355E-15, 9.031770143711729009E-17, -1.000000000000000000 ) ) ;
#56 = CARTESIAN_POINT ( 'NONE',  ( 4.885231259955590439E-14, -1.263712492114123682E-15, 13.99185842870425134 ) ) ;
#57 = APPROVAL ( #211, 'UNSPECIFIED' ) ;
#58 = ADVANCED_FACE ( 'NONE', ( #133 ), #152, .T. ) ;
#59 = COORDINATED_UNIVERSAL_TIME_OFFSET ( 1, 0, .AHEAD. ) ;
#60 = APPROVAL_DATE_TIME ( #224, #229 ) ;
#61 = CARTESIAN_POINT ( 'NONE',  ( 4.885231259955590439E-14, 1.999999999999990452, 13.99185842870425134 ) ) ;
#62 = DIRECTION ( 'NONE',  ( -1.623026187498329915E-30, 1.000000000000000000, -4.648531754822734379E-16 ) ) ;
#63 = CARTESIAN_POINT ( 'NONE',  ( 2.779219145719134403E-13, 1.999999999999988010, 79.60000000000000853 ) ) ;
#64 = ADVANCED_FACE ( 'NONE', ( #217, #173 ), #228, .T. ) ;
#65 = APPROVAL_ROLE ( '' ) ;
#66 = PERSON_AND_ORGANIZATION_ROLE ( 'creator' ) ;
#67 = SHAPE_DEFINITION_REPRESENTATION ( #34, #151 ) ;
#68 = EDGE_LOOP ( 'NONE', ( #127 ) ) ;
#69 = FACE_OUTER_BOUND ( 'NONE', #188, .T. ) ;
#70 = AXIS2_PLACEMENT_3D ( 'NONE', #21, #159, #62 ) ;
#71 = FACE_OUTER_BOUND ( 'NONE', #68, .T. ) ;
#72 = CARTESIAN_POINT ( 'NONE',  ( 0.0000000000000000000, 0.0000000000000000000, 0.0000000000000000000 ) ) ;
#73 = CARTESIAN_POINT ( 'NONE',  ( 2.793185071074506684E-13, -7.225416114969383207E-15, 80.00000000000000000 ) ) ;
#74 = LOCAL_TIME ( 11, 2, 39.00000000000000000, #59 ) ;
#75 = FACE_BOUND ( 'NONE', #233, .T. ) ;
#76 = ADVANCED_FACE ( 'NONE', ( #14, #71 ), #187, .T. ) ;
#77 = APPLICATION_PROTOCOL_DEFINITION ( 'international standard', 'config_control_design', 1994, #119 ) ;
#78 = ADVANCED_FACE ( 'NONE', ( #97 ), #150, .T. ) ;
#79 = PERSON_AND_ORGANIZATION ( #164, #194 ) ;
#80 = AXIS2_PLACEMENT_3D ( 'NONE', #73, #12, #235 ) ;
#81 = UNCERTAINTY_MEASURE_WITH_UNIT (LENGTH_MEASURE( 1.000000000000000082E-05 ), #192, 'distance_accuracy_value', 'NONE');
#82 = CARTESIAN_POINT ( 'NONE',  ( 0.0000000000000000000, 0.0000000000000000000, 0.0000000000000000000 ) ) ;
#83 = DIRECTION ( 'NONE',  ( 0.0000000000000000000, 1.000000000000000000, 0.0000000000000000000 ) ) ;
#84 = AXIS2_PLACEMENT_3D ( 'NONE', #218, #153, #186 ) ;
#85 = CC_DESIGN_DATE_AND_TIME_ASSIGNMENT ( #214, #213, ( #178 ) ) ;
#86 = ADVANCED_FACE ( 'NONE', ( #174 ), #148, .T. ) ;
#87 = CC_DESIGN_PERSON_AND_ORGANIZATION_ASSIGNMENT ( #79, #137, ( #54 ) ) ;
#88 = APPROVAL_STATUS ( 'not_yet_approved' ) ;
#89 = ORIENTED_EDGE ( 'NONE', *, *, #208, .F. ) ;
#90 = COORDINATED_UNIVERSAL_TIME_OFFSET ( 1, 0, .AHEAD. ) ;
#91 = COORDINATED_UNIVERSAL_TIME_OFFSET ( 1, 0, .AHEAD. ) ;
#92 = CARTESIAN_POINT ( 'NONE',  ( 0.0000000000000000000, 0.0000000000000000000, 0.0000000000000000000 ) ) ;
#93 = CARTESIAN_POINT ( 'NONE',  ( 4.819314348464736553E-14, 6.416398545820119677E-15, 13.80306489067922904 ) ) ;
#94 = AXIS2_PLACEMENT_3D ( 'NONE', #19, #227, #35 ) ;
#95 = EDGE_LOOP ( 'NONE', ( #165 ) ) ;
#96 = DIRECTION ( 'NONE',  ( -1.623026187498329565E-30, 1.000000000000000000, -4.648531754822734379E-16 ) ) ;
#97 = FACE_OUTER_BOUND ( 'NONE', #108, .T. ) ;
#98 = CIRCLE ( 'NONE', #94, 2.108999999999991992 ) ;
#99 = VERTEX_POINT ( 'NONE', #61 ) ;
#100 = CARTESIAN_POINT ( 'NONE',  ( 6.842277657836020854E-46, 1.878059892324149160, 0.0000000000000000000 ) ) ;
#101 = CLOSED_SHELL ( 'NONE', ( #86, #147, #20, #64, #78 ) ) ;
#102 = DESIGN_CONTEXT ( 'detailed design', #119, 'design' ) ;
#103 = VERTEX_POINT ( 'NONE', #118 ) ;
#104 = EDGE_CURVE ( 'NONE', #160, #160, #50, .T. ) ;
#105 = LOCAL_TIME ( 11, 2, 39.00000000000000000, #90 ) ;
#106 = ORIENTED_EDGE ( 'NONE', *, *, #169, .T. ) ;
#107 = DATE_AND_TIME ( #4, #111 ) ;
#108 = EDGE_LOOP ( 'NONE', ( #24 ) ) ;
#109 = EDGE_LOOP ( 'NONE', ( #199 ) ) ;
#110 = PERSON_AND_ORGANIZATION ( #164, #194 ) ;
#111 = LOCAL_TIME ( 11, 2, 39.00000000000000000, #180 ) ;
#112 = EDGE_LOOP ( 'NONE', ( #113 ) ) ;
#113 = ORIENTED_EDGE ( 'NONE', *, *, #132, .T. ) ;
#114 = EDGE_CURVE ( 'NONE', #120, #120, #46, .T. ) ;
#115 = DIRECTION ( 'NONE',  ( -1.643752441866773901E-30, 1.000000000000000000, -4.626751802925341143E-16 ) ) ;
#116 = CYLINDRICAL_SURFACE ( 'NONE', #42, 1.999999999999993561 ) ;
#117 = CARTESIAN_POINT ( 'NONE',  ( 2.793185071074506684E-13, -7.225416114969383207E-15, 80.00000000000000000 ) ) ;
#118 = CARTESIAN_POINT ( 'NONE',  ( 4.819314348464735922E-14, 2.108999999999998654, 13.80306489067922726 ) ) ;
#119 = APPLICATION_CONTEXT ( 'configuration controlled 3d designs of mechanical parts and assemblies' ) ;
#120 = VERTEX_POINT ( 'NONE', #63 ) ;
#121 = FACE_OUTER_BOUND ( 'NONE', #109, .T. ) ;
#122 = CARTESIAN_POINT ( 'NONE',  ( 2.793185071074506684E-13, 1.599999999999987876, 80.00000000000000000 ) ) ;
#123 = AXIS2_PLACEMENT_3D ( 'NONE', #51, #154, #83 ) ;
#124 = SECURITY_CLASSIFICATION_LEVEL ( 'unclassified' ) ;
#125 = CALENDAR_DATE ( 2021, 26, 11 ) ;
#126 = PERSON_AND_ORGANIZATION ( #164, #194 ) ;
#127 = ORIENTED_EDGE ( 'NONE', *, *, #104, .F. ) ;
#128 = LOCAL_TIME ( 11, 2, 39.00000000000000000, #5 ) ;
#129 = CC_DESIGN_DATE_AND_TIME_ASSIGNMENT ( #107, #146, ( #30 ) ) ;
#130 = FACE_BOUND ( 'NONE', #27, .T. ) ;
#131 = ORIENTED_EDGE ( 'NONE', *, *, #114, .T. ) ;
#132 = EDGE_CURVE ( 'NONE', #99, #99, #243, .T. ) ;
#133 = FACE_OUTER_BOUND ( 'NONE', #231, .T. ) ;
#134 =( GEOMETRIC_REPRESENTATION_CONTEXT ( 3 ) GLOBAL_UNCERTAINTY_ASSIGNED_CONTEXT ( ( #81 ) ) GLOBAL_UNIT_ASSIGNED_CONTEXT ( ( #192, #242, #209 ) ) REPRESENTATION_CONTEXT ( 'NONE', 'WORKASPACE' ) );
#135 = ORIENTED_EDGE ( 'NONE', *, *, #169, .F. ) ;
#136 = FACE_OUTER_BOUND ( 'NONE', #26, .T. ) ;
#137 = PERSON_AND_ORGANIZATION_ROLE ( 'design_owner' ) ;
#138 = CONICAL_SURFACE ( 'NONE', #143, 1.878059892324149160, 0.5235987755982979275 ) ;
#139 = CARTESIAN_POINT ( 'NONE',  ( 4.819314348464735922E-14, 2.108999999999998654, 13.80306489067922726 ) ) ;
#140 = VERTEX_POINT ( 'NONE', #122 ) ;
#141 = AXIS2_PLACEMENT_3D ( 'NONE', #56, #55, #53 ) ;
#142 = CALENDAR_DATE ( 2021, 26, 11 ) ;
#143 = AXIS2_PLACEMENT_3D ( 'NONE', #205, #216, #10 ) ;
#144 = PERSON_AND_ORGANIZATION ( #164, #194 ) ;
#145 = AXIS2_PLACEMENT_3D ( 'NONE', #202, #31, #115 ) ;
#146 = DATE_TIME_ROLE ( 'creation_date' ) ;
#147 = ADVANCED_FACE ( 'NONE', ( #75, #168 ), #170, .T. ) ;
#148 = PLANE ( 'NONE',  #25 ) ;
#149 = MANIFOLD_SOLID_BREP ( 'Corps-Déplacer/Copier1[1]', #101 ) ;
#150 = PLANE ( 'NONE',  #203 ) ;
#151 = ADVANCED_BREP_SHAPE_REPRESENTATION ( '321325', ( #149, #222, #166 ), #134 ) ;
#152 = PLANE ( 'NONE',  #13 ) ;
#153 = DIRECTION ( 'NONE',  ( -3.491481338843133355E-15, 9.031770143711729009E-17, -1.000000000000000000 ) ) ;
#154 = DIRECTION ( 'NONE',  ( -3.491481338843133355E-15, 9.031770143711729009E-17, -1.000000000000000000 ) ) ;
#155 = PERSON_AND_ORGANIZATION ( #164, #194 ) ;
#156 = ADVANCED_FACE ( 'NONE', ( #121 ), #193, .T. ) ;
#157 = VERTEX_POINT ( 'NONE', #139 ) ;
#158 = AXIS2_PLACEMENT_3D ( 'NONE', #92, #221, #96 ) ;
#159 = DIRECTION ( 'NONE',  ( -3.491481338843133355E-15, -4.648531754822734379E-16, -1.000000000000000000 ) ) ;
#160 = VERTEX_POINT ( 'NONE', #226 ) ;
#161 = DIRECTION ( 'NONE',  ( -3.491481338843133355E-15, -4.648531754822734379E-16, -1.000000000000000000 ) ) ;
#162 = CC_DESIGN_APPROVAL ( #229, ( #30 ) ) ;
#163 = PERSON_AND_ORGANIZATION ( #164, #194 ) ;
#164 = PERSON ( 'UNSPECIFIED', 'UNSPECIFIED', 'UNSPECIFIED', ('UNSPECIFIED'), ('UNSPECIFIED'), ('UNSPECIFIED') ) ;
#165 = ORIENTED_EDGE ( 'NONE', *, *, #3, .F. ) ;
#166 = AXIS2_PLACEMENT_3D ( 'NONE', #82, #176, #240 ) ;
#167 = APPROVAL_DATE_TIME ( #47, #36 ) ;
#168 = FACE_OUTER_BOUND ( 'NONE', #200, .T. ) ;
#169 = EDGE_CURVE ( 'NONE', #157, #157, #98, .T. ) ;
#170 = CONICAL_SURFACE ( 'NONE', #123, 1.999999999999995337, 0.7853981633974516097 ) ;
#171 = DIRECTION ( 'NONE',  ( 1.623026187498329915E-30, -1.000000000000000000, 4.648531754822734379E-16 ) ) ;
#172 = EDGE_LOOP ( 'NONE', ( #131 ) ) ;
#173 = FACE_OUTER_BOUND ( 'NONE', #49, .T. ) ;
#174 = FACE_OUTER_BOUND ( 'NONE', #95, .T. ) ;
#175 = APPROVAL_PERSON_ORGANIZATION ( #144, #57, #65 ) ;
#176 = DIRECTION ( 'NONE',  ( 0.0000000000000000000, 0.0000000000000000000, 1.000000000000000000 ) ) ;
#177 = PERSON_AND_ORGANIZATION_ROLE ( 'classification_officer' ) ;
#178 = SECURITY_CLASSIFICATION ( '', '', #124 ) ;
#179 = APPROVAL_PERSON_ORGANIZATION ( #163, #36, #8 ) ;
#180 = COORDINATED_UNIVERSAL_TIME_OFFSET ( 1, 0, .AHEAD. ) ;
#181 = ORIENTED_EDGE ( 'NONE', *, *, #3, .T. ) ;
#182 = CALENDAR_DATE ( 2021, 26, 11 ) ;
#183 = DIRECTION ( 'NONE',  ( 0.0000000000000000000, 1.000000000000000000, 0.0000000000000000000 ) ) ;
#184 = ORIENTED_EDGE ( 'NONE', *, *, #104, .T. ) ;
#185 = CIRCLE ( 'NONE', #70, 1.878059892324149160 ) ;
#186 = DIRECTION ( 'NONE',  ( 0.0000000000000000000, 1.000000000000000000, 0.0000000000000000000 ) ) ;
#187 = CYLINDRICAL_SURFACE ( 'NONE', #158, 2.108999999999995545 ) ;
#188 = EDGE_LOOP ( 'NONE', ( #184 ) ) ;
#189 = CC_DESIGN_PERSON_AND_ORGANIZATION_ASSIGNMENT ( #196, #177, ( #178 ) ) ;
#190 = MECHANICAL_CONTEXT ( 'NONE', #2, 'mechanical' ) ;
#191 = EDGE_CURVE ( 'NONE', #41, #41, #185, .T. ) ;
#192 =( LENGTH_UNIT ( ) NAMED_UNIT ( * ) SI_UNIT ( .MILLI., .METRE. ) );
#193 = PLANE ( 'NONE',  #6 ) ;
#194 = ORGANIZATION ( 'UNSPECIFIED', 'UNSPECIFIED', '' ) ;
#195 = CARTESIAN_POINT ( 'NONE',  ( 4.819314348464735922E-14, -1.246661093713522507E-15, 13.80306489067922726 ) ) ;
#196 = PERSON_AND_ORGANIZATION ( #164, #194 ) ;
#197 = ORIENTED_EDGE ( 'NONE', *, *, #114, .F. ) ;
#198 = APPROVAL_DATE_TIME ( #43, #57 ) ;
#199 = ORIENTED_EDGE ( 'NONE', *, *, #191, .T. ) ;
#200 = EDGE_LOOP ( 'NONE', ( #197 ) ) ;
#201 = DIRECTION ( 'NONE',  ( -3.491481338843133355E-15, 9.031770143711729009E-17, -1.000000000000000000 ) ) ;
#202 = CARTESIAN_POINT ( 'NONE',  ( 1.396592535537256300E-15, 1.859412701929098091E-16, 0.4000000000000009104 ) ) ;
#203 = AXIS2_PLACEMENT_3D ( 'NONE', #238, #201, #33 ) ;
#204 = DIRECTION ( 'NONE',  ( -3.491481338843133355E-15, 9.031770143711729009E-17, -1.000000000000000000 ) ) ;
#205 = CARTESIAN_POINT ( 'NONE',  ( 3.048140386932388310E-30, 4.058270976326552367E-31, 8.730221046927772823E-16 ) ) ;
#206 = ORIENTED_EDGE ( 'NONE', *, *, #191, .F. ) ;
#207 = CALENDAR_DATE ( 2021, 26, 11 ) ;
#208 = EDGE_CURVE ( 'NONE', #103, #103, #215, .T. ) ;
#209 =( NAMED_UNIT ( * ) SI_UNIT ( $, .STERADIAN. ) SOLID_ANGLE_UNIT ( ) );
#210 = APPROVAL_PERSON_ORGANIZATION ( #155, #229, #223 ) ;
#211 = APPROVAL_STATUS ( 'not_yet_approved' ) ;
#212 = CC_DESIGN_PERSON_AND_ORGANIZATION_ASSIGNMENT ( #45, #48, ( #28 ) ) ;
#213 = DATE_TIME_ROLE ( 'classification_date' ) ;
#214 = DATE_AND_TIME ( #182, #105 ) ;
#215 = CIRCLE ( 'NONE', #225, 2.108999999999999986 ) ;
#216 = DIRECTION ( 'NONE',  ( 3.491481338843133355E-15, 4.648531754822734379E-16, 1.000000000000000000 ) ) ;
#217 = FACE_BOUND ( 'NONE', #112, .T. ) ;
#218 = CARTESIAN_POINT ( 'NONE',  ( 2.779219145719134403E-13, -7.189289034394536528E-15, 79.60000000000000853 ) ) ;
#219 = CLOSED_SHELL ( 'NONE', ( #58, #76, #11, #156 ) ) ;
#220 = FACE_OUTER_BOUND ( 'NONE', #172, .T. ) ;
#221 = DIRECTION ( 'NONE',  ( -3.491481338843133355E-15, -4.648531754822734379E-16, -1.000000000000000000 ) ) ;
#222 = MANIFOLD_SOLID_BREP ( 'Corps-Déplacer/Copier1[2]', #219 ) ;
#223 = APPROVAL_ROLE ( '' ) ;
#224 = DATE_AND_TIME ( #207, #74 ) ;
#225 = AXIS2_PLACEMENT_3D ( 'NONE', #195, #40, #1 ) ;
#226 = CARTESIAN_POINT ( 'NONE',  ( 1.396592535537252948E-15, 2.108999999999999098, 0.3999999999999999112 ) ) ;
#227 = DIRECTION ( 'NONE',  ( -3.491481338843133355E-15, -4.648531754822734379E-16, -1.000000000000000000 ) ) ;
#228 = CONICAL_SURFACE ( 'NONE', #23, 2.108999999999999986, 0.5235987755982902669 ) ;
#229 = APPROVAL ( #38, 'UNSPECIFIED' ) ;
#230 = PERSON_AND_ORGANIZATION_ROLE ( 'creator' ) ;
#231 = EDGE_LOOP ( 'NONE', ( #135 ) ) ;
#232 = CIRCLE ( 'NONE', #80, 1.599999999999994982 ) ;
#233 = EDGE_LOOP ( 'NONE', ( #181 ) ) ;
#234 = PRODUCT_RELATED_PRODUCT_CATEGORY ( 'detail', '', ( #54 ) ) ;
#235 = DIRECTION ( 'NONE',  ( 0.0000000000000000000, 1.000000000000000000, 0.0000000000000000000 ) ) ;
#236 = LOCAL_TIME ( 11, 2, 39.00000000000000000, #91 ) ;
#237 = DIRECTION ( 'NONE',  ( -3.491481338843133355E-15, 9.031770143711729009E-17, -1.000000000000000000 ) ) ;
#238 = CARTESIAN_POINT ( 'NONE',  ( 4.819314348464736553E-14, 2.108999999999998654, 13.80306489067922904 ) ) ;
#239 = DIRECTION ( 'NONE',  ( 3.491481338843133355E-15, -9.031770143711729009E-17, 1.000000000000000000 ) ) ;
#240 = DIRECTION ( 'NONE',  ( 1.000000000000000000, 0.0000000000000000000, 0.0000000000000000000 ) ) ;
#241 = APPLICATION_PROTOCOL_DEFINITION ( 'international standard', 'config_control_design', 1994, #2 ) ;
#242 =( NAMED_UNIT ( * ) PLANE_ANGLE_UNIT ( ) SI_UNIT ( $, .RADIAN. ) );
#243 = CIRCLE ( 'NONE', #141, 1.999999999999991784 ) ;
ENDSEC;
END-ISO-10303-21;
