ISO-10303-21;
HEADER;
FILE_DESCRIPTION (( 'STEP AP203' ),
    '1' );
FILE_NAME ('321324.step',
    '2021-11-26T10:02:38',
    ( '' ),
    ( '' ),
    'SwSTEP 2.0',
    'SolidWorks 2019',
    '' );
FILE_SCHEMA (( 'CONFIG_CONTROL_DESIGN' ));
ENDSEC;

DATA;
#1 = ORIENTED_EDGE ( 'NONE', *, *, #105, .F. ) ;
#2 = ORIENTED_EDGE ( 'NONE', *, *, #114, .F. ) ;
#3 = CARTESIAN_POINT ( 'NONE',  ( 4.822338060001013427E-14, 6.414277395342671955E-15, 13.81172514471707302 ) ) ;
#4 = CARTESIAN_POINT ( 'NONE',  ( 1.396592535537252948E-15, 2.103999999999998760, 0.3999999999999999112 ) ) ;
#5 = SECURITY_CLASSIFICATION ( '', '', #34 ) ;
#6 = VERTEX_POINT ( 'NONE', #4 ) ;
#7 = CARTESIAN_POINT ( 'NONE',  ( 2.793185071074506684E-13, 1.599999999999987876, 80.00000000000000000 ) ) ;
#8 = PLANE ( 'NONE',  #74 ) ;
#9 = ADVANCED_FACE ( 'NONE', ( #58 ), #131, .T. ) ;
#10 = VERTEX_POINT ( 'NONE', #88 ) ;
#11 = APPROVAL ( #147, 'UNSPECIFIED' ) ;
#12 = COORDINATED_UNIVERSAL_TIME_OFFSET ( 1, 0, .AHEAD. ) ;
#13 = PERSON_AND_ORGANIZATION ( #119, #210 ) ;
#14 = EDGE_LOOP ( 'NONE', ( #211 ) ) ;
#15 = CALENDAR_DATE ( 2021, 26, 11 ) ;
#16 = PRODUCT_DEFINITION_FORMATION_WITH_SPECIFIED_SOURCE ( 'ANY', '', #18, .NOT_KNOWN. ) ;
#17 = DIRECTION ( 'NONE',  ( -3.491481338843133355E-15, -4.644081262937748077E-16, -1.000000000000000000 ) ) ;
#18 = PRODUCT ( '321324', '321324', '', ( #218 ) ) ;
#19 = PRODUCT_DEFINITION ( 'UNKNOWN', '', #16, #94 ) ;
#20 = EDGE_LOOP ( 'NONE', ( #241 ) ) ;
#21 = DIRECTION ( 'NONE',  ( 0.0000000000000000000, 1.000000000000000000, 0.0000000000000000000 ) ) ;
#22 = EDGE_LOOP ( 'NONE', ( #2 ) ) ;
#23 = EDGE_LOOP ( 'NONE', ( #1 ) ) ;
#24 = FACE_OUTER_BOUND ( 'NONE', #56, .T. ) ;
#25 = CARTESIAN_POINT ( 'NONE',  ( 0.0000000000000000000, 0.0000000000000000000, 0.0000000000000000000 ) ) ;
#26 = APPLICATION_CONTEXT ( 'configuration controlled 3d designs of mechanical parts and assemblies' ) ;
#27 =( NAMED_UNIT ( * ) SI_UNIT ( $, .STERADIAN. ) SOLID_ANGLE_UNIT ( ) );
#28 = EDGE_CURVE ( 'NONE', #200, #200, #243, .T. ) ;
#29 = CARTESIAN_POINT ( 'NONE',  ( 4.822338060001012164E-14, 2.103999999999998316, 13.81172514471706947 ) ) ;
#30 = APPROVAL_PERSON_ORGANIZATION ( #170, #36, #130 ) ;
#31 = CARTESIAN_POINT ( 'NONE',  ( 4.822338060001012795E-14, 2.103999999999998316, 13.81172514471707125 ) ) ;
#32 = DATE_AND_TIME ( #127, #80 ) ;
#33 = PERSON_AND_ORGANIZATION ( #119, #210 ) ;
#34 = SECURITY_CLASSIFICATION_LEVEL ( 'unclassified' ) ;
#35 = ORIENTED_EDGE ( 'NONE', *, *, #28, .F. ) ;
#36 = APPROVAL ( #51, 'UNSPECIFIED' ) ;
#37 = CARTESIAN_POINT ( 'NONE',  ( 2.793185071074506684E-13, -7.225416114969383207E-15, 80.00000000000000000 ) ) ;
#38 = DIRECTION ( 'NONE',  ( -3.491481338843133355E-15, 9.031770143711729009E-17, -1.000000000000000000 ) ) ;
#39 = APPLICATION_CONTEXT ( 'configuration controlled 3d designs of mechanical parts and assemblies' ) ;
#40 = EDGE_LOOP ( 'NONE', ( #54 ) ) ;
#41 = CONICAL_SURFACE ( 'NONE', #145, 2.103999999999999648, 0.5235987755982908221 ) ;
#42 = CARTESIAN_POINT ( 'NONE',  ( 2.779219145719134403E-13, -7.189289034394536528E-15, 79.60000000000000853 ) ) ;
#43 = CARTESIAN_POINT ( 'NONE',  ( 3.037114743935271213E-30, 4.039720195203788854E-31, 8.698642350302774923E-16 ) ) ;
#44 = DIRECTION ( 'NONE',  ( -1.621472306561819687E-30, 1.000000000000000000, -4.644081262937748077E-16 ) ) ;
#45 = AXIS2_PLACEMENT_3D ( 'NONE', #43, #193, #118 ) ;
#46 = FACE_OUTER_BOUND ( 'NONE', #196, .T. ) ;
#47 = CC_DESIGN_SECURITY_CLASSIFICATION ( #5, ( #16 ) ) ;
#48 = ADVANCED_FACE ( 'NONE', ( #175, #64 ), #222, .T. ) ;
#49 =( NAMED_UNIT ( * ) PLANE_ANGLE_UNIT ( ) SI_UNIT ( $, .RADIAN. ) );
#50 = AXIS2_PLACEMENT_3D ( 'NONE', #97, #132, #135 ) ;
#51 = APPROVAL_STATUS ( 'not_yet_approved' ) ;
#52 = MANIFOLD_SOLID_BREP ( 'Corps-Déplacer/Copier1[2]', #199 ) ;
#53 = COORDINATED_UNIVERSAL_TIME_OFFSET ( 1, 0, .AHEAD. ) ;
#54 = ORIENTED_EDGE ( 'NONE', *, *, #114, .T. ) ;
#55 = CC_DESIGN_DATE_AND_TIME_ASSIGNMENT ( #236, #106, ( #5 ) ) ;
#56 = EDGE_LOOP ( 'NONE', ( #117 ) ) ;
#57 = CC_DESIGN_DATE_AND_TIME_ASSIGNMENT ( #149, #73, ( #19 ) ) ;
#58 = FACE_OUTER_BOUND ( 'NONE', #23, .T. ) ;
#59 = LOCAL_TIME ( 11, 2, 38.00000000000000000, #173 ) ;
#60 = DIRECTION ( 'NONE',  ( -3.491481338843133355E-15, 9.031770143711729009E-17, -1.000000000000000000 ) ) ;
#61 = FACE_OUTER_BOUND ( 'NONE', #40, .T. ) ;
#62 = EDGE_LOOP ( 'NONE', ( #229 ) ) ;
#63 = AXIS2_PLACEMENT_3D ( 'NONE', #162, #231, #67 ) ;
#64 = FACE_OUTER_BOUND ( 'NONE', #20, .T. ) ;
#65 = DIRECTION ( 'NONE',  ( -3.491481338843133355E-15, 9.031770143711729009E-17, -1.000000000000000000 ) ) ;
#66 = ADVANCED_FACE ( 'NONE', ( #61, #99 ), #185, .T. ) ;
#67 = DIRECTION ( 'NONE',  ( 1.000000000000000000, 0.0000000000000000000, 0.0000000000000000000 ) ) ;
#68 = APPROVAL_PERSON_ORGANIZATION ( #238, #76, #203 ) ;
#69 = FACE_OUTER_BOUND ( 'NONE', #137, .T. ) ;
#70 = DATE_AND_TIME ( #108, #59 ) ;
#71 = PERSON_AND_ORGANIZATION ( #119, #210 ) ;
#72 = APPROVAL_DATE_TIME ( #70, #76 ) ;
#73 = DATE_TIME_ROLE ( 'creation_date' ) ;
#74 = AXIS2_PLACEMENT_3D ( 'NONE', #87, #180, #44 ) ;
#75 = CALENDAR_DATE ( 2021, 26, 11 ) ;
#76 = APPROVAL ( #184, 'UNSPECIFIED' ) ;
#77 = EDGE_LOOP ( 'NONE', ( #177 ) ) ;
#78 = ORIENTED_EDGE ( 'NONE', *, *, #82, .F. ) ;
#79 = AXIS2_PLACEMENT_3D ( 'NONE', #111, #17, #153 ) ;
#80 = LOCAL_TIME ( 11, 2, 38.00000000000000000, #53 ) ;
#81 = DIRECTION ( 'NONE',  ( 3.491481338843133355E-15, -9.031770143711729009E-17, 1.000000000000000000 ) ) ;
#82 = EDGE_CURVE ( 'NONE', #167, #167, #124, .T. ) ;
#83 = DIRECTION ( 'NONE',  ( -2.929171018079457701E-30, 1.000000000000000000, -8.244883440954438815E-16 ) ) ;
#84 = AXIS2_PLACEMENT_3D ( 'NONE', #220, #104, #181 ) ;
#85 = EDGE_CURVE ( 'NONE', #122, #122, #219, .T. ) ;
#86 = CARTESIAN_POINT ( 'NONE',  ( 0.0000000000000000000, 0.0000000000000000000, 0.0000000000000000000 ) ) ;
#87 = CARTESIAN_POINT ( 'NONE',  ( -1.518557371967635607E-30, 1.873059892324148823, -4.349321175151387461E-16 ) ) ;
#88 = CARTESIAN_POINT ( 'NONE',  ( 2.779219145719134403E-13, 1.999999999999988010, 79.60000000000000853 ) ) ;
#89 = PERSON_AND_ORGANIZATION ( #119, #210 ) ;
#90 = AXIS2_PLACEMENT_3D ( 'NONE', #37, #81, #213 ) ;
#91 = PERSON_AND_ORGANIZATION_ROLE ( 'creator' ) ;
#92 = APPROVAL_DATE_TIME ( #152, #36 ) ;
#93 = ORIENTED_EDGE ( 'NONE', *, *, #28, .T. ) ;
#94 = DESIGN_CONTEXT ( 'detailed design', #39, 'design' ) ;
#95 = EDGE_LOOP ( 'NONE', ( #78 ) ) ;
#96 = CARTESIAN_POINT ( 'NONE',  ( 4.822338060001012795E-14, -1.247443267952082001E-15, 13.81172514471707125 ) ) ;
#97 = CARTESIAN_POINT ( 'NONE',  ( 1.396592535537256300E-15, 1.857632505175103471E-16, 0.4000000000000009104 ) ) ;
#98 = ADVANCED_FACE ( 'NONE', ( #197 ), #225, .T. ) ;
#99 = FACE_BOUND ( 'NONE', #95, .T. ) ;
#100 = DIRECTION ( 'NONE',  ( 0.0000000000000000000, 1.000000000000000000, 0.0000000000000000000 ) ) ;
#101 = CC_DESIGN_PERSON_AND_ORGANIZATION_ASSIGNMENT ( #13, #91, ( #19 ) ) ;
#102 = DIRECTION ( 'NONE',  ( 3.153425691349006731E-31, 1.000000000000000000, 9.031770143711729009E-17 ) ) ;
#103 = CYLINDRICAL_SURFACE ( 'NONE', #176, 1.999999999999993561 ) ;
#104 = DIRECTION ( 'NONE',  ( -3.491481338843133355E-15, 9.031770143711729009E-17, -1.000000000000000000 ) ) ;
#105 = EDGE_CURVE ( 'NONE', #179, #179, #204, .T. ) ;
#106 = DATE_TIME_ROLE ( 'classification_date' ) ;
#107 = CC_DESIGN_PERSON_AND_ORGANIZATION_ASSIGNMENT ( #33, #168, ( #18 ) ) ;
#108 = CALENDAR_DATE ( 2021, 26, 11 ) ;
#109 = ADVANCED_BREP_SHAPE_REPRESENTATION ( '321324', ( #134, #52, #63 ), #136 ) ;
#110 = PERSON_AND_ORGANIZATION_ROLE ( 'creator' ) ;
#111 = CARTESIAN_POINT ( 'NONE',  ( 3.037114743935271213E-30, 4.039720195203788854E-31, 8.698642350302774923E-16 ) ) ;
#112 = PRODUCT_DEFINITION_SHAPE ( 'NONE', 'NONE',  #19 ) ;
#113 = DIRECTION ( 'NONE',  ( -3.491481338843133355E-15, -4.644081262937748077E-16, -1.000000000000000000 ) ) ;
#114 = EDGE_CURVE ( 'NONE', #6, #6, #128, .T. ) ;
#115 = CARTESIAN_POINT ( 'NONE',  ( 4.885231259955590439E-14, -1.263712492114123682E-15, 13.99185842870425134 ) ) ;
#116 = AXIS2_PLACEMENT_3D ( 'NONE', #42, #201, #234 ) ;
#117 = ORIENTED_EDGE ( 'NONE', *, *, #144, .T. ) ;
#118 = DIRECTION ( 'NONE',  ( 1.621472306561819687E-30, -1.000000000000000000, 4.644081262937748077E-16 ) ) ;
#119 = PERSON ( 'UNSPECIFIED', 'UNSPECIFIED', 'UNSPECIFIED', ('UNSPECIFIED'), ('UNSPECIFIED'), ('UNSPECIFIED') ) ;
#120 = CLOSED_SHELL ( 'NONE', ( #9, #48, #207, #141, #188 ) ) ;
#121 = DIRECTION ( 'NONE',  ( -3.491481338843133355E-15, -4.644081262937748077E-16, -1.000000000000000000 ) ) ;
#122 = VERTEX_POINT ( 'NONE', #31 ) ;
#123 = DIRECTION ( 'NONE',  ( -1.621472306561819687E-30, 1.000000000000000000, -4.644081262937747091E-16 ) ) ;
#124 = CIRCLE ( 'NONE', #79, 1.873059892324148823 ) ;
#125 = PRODUCT_RELATED_PRODUCT_CATEGORY ( 'detail', '', ( #18 ) ) ;
#126 = COORDINATED_UNIVERSAL_TIME_OFFSET ( 1, 0, .AHEAD. ) ;
#127 = CALENDAR_DATE ( 2021, 26, 11 ) ;
#128 = CIRCLE ( 'NONE', #50, 2.103999999999998760 ) ;
#129 = EDGE_LOOP ( 'NONE', ( #178 ) ) ;
#130 = APPROVAL_ROLE ( '' ) ;
#131 = PLANE ( 'NONE',  #90 ) ;
#132 = DIRECTION ( 'NONE',  ( -3.491481338843133355E-15, -4.644081262937748077E-16, -1.000000000000000000 ) ) ;
#133 = DIRECTION ( 'NONE',  ( 3.491481338843133355E-15, 4.644081262937748077E-16, 1.000000000000000000 ) ) ;
#134 = MANIFOLD_SOLID_BREP ( 'Corps-Déplacer/Copier1[1]', #120 ) ;
#135 = DIRECTION ( 'NONE',  ( -1.647658697669689461E-30, 1.000000000000000000, -4.637746935536856365E-16 ) ) ;
#136 =( GEOMETRIC_REPRESENTATION_CONTEXT ( 3 ) GLOBAL_UNCERTAINTY_ASSIGNED_CONTEXT ( ( #189 ) ) GLOBAL_UNIT_ASSIGNED_CONTEXT ( ( #161, #49, #27 ) ) REPRESENTATION_CONTEXT ( 'NONE', 'WORKASPACE' ) );
#137 = EDGE_LOOP ( 'NONE', ( #35 ) ) ;
#138 = VERTEX_POINT ( 'NONE', #202 ) ;
#139 = CC_DESIGN_APPROVAL ( #11, ( #16 ) ) ;
#140 = PLANE ( 'NONE',  #150 ) ;
#141 = ADVANCED_FACE ( 'NONE', ( #194, #158 ), #41, .T. ) ;
#142 = CARTESIAN_POINT ( 'NONE',  ( 0.0000000000000000000, 1.873059892324148823, 0.0000000000000000000 ) ) ;
#143 = APPLICATION_PROTOCOL_DEFINITION ( 'international standard', 'config_control_design', 1994, #26 ) ;
#144 = EDGE_CURVE ( 'NONE', #10, #10, #164, .T. ) ;
#145 = AXIS2_PLACEMENT_3D ( 'NONE', #96, #228, #214 ) ;
#146 = CC_DESIGN_APPROVAL ( #36, ( #5 ) ) ;
#147 = APPROVAL_STATUS ( 'not_yet_approved' ) ;
#148 = PERSON_AND_ORGANIZATION ( #119, #210 ) ;
#149 = DATE_AND_TIME ( #206, #186 ) ;
#150 = AXIS2_PLACEMENT_3D ( 'NONE', #29, #65, #102 ) ;
#151 = LOCAL_TIME ( 11, 2, 38.00000000000000000, #187 ) ;
#152 = DATE_AND_TIME ( #15, #169 ) ;
#153 = DIRECTION ( 'NONE',  ( -1.621472306561819687E-30, 1.000000000000000000, -4.644081262937748077E-16 ) ) ;
#154 = EDGE_CURVE ( 'NONE', #138, #138, #237, .T. ) ;
#155 = ORIENTED_EDGE ( 'NONE', *, *, #105, .T. ) ;
#156 = AXIS2_PLACEMENT_3D ( 'NONE', #174, #215, #227 ) ;
#157 = EDGE_LOOP ( 'NONE', ( #93 ) ) ;
#158 = FACE_OUTER_BOUND ( 'NONE', #62, .T. ) ;
#159 = ORIENTED_EDGE ( 'NONE', *, *, #85, .T. ) ;
#160 = AXIS2_PLACEMENT_3D ( 'NONE', #3, #113, #83 ) ;
#161 =( LENGTH_UNIT ( ) NAMED_UNIT ( * ) SI_UNIT ( .MILLI., .METRE. ) );
#162 = CARTESIAN_POINT ( 'NONE',  ( 0.0000000000000000000, 0.0000000000000000000, 0.0000000000000000000 ) ) ;
#163 = CYLINDRICAL_SURFACE ( 'NONE', #182, 2.103999999999995207 ) ;
#164 = CIRCLE ( 'NONE', #116, 1.999999999999995337 ) ;
#165 = ADVANCED_FACE ( 'NONE', ( #46, #217 ), #163, .T. ) ;
#166 = APPROVAL_PERSON_ORGANIZATION ( #171, #11, #224 ) ;
#167 = VERTEX_POINT ( 'NONE', #142 ) ;
#168 = PERSON_AND_ORGANIZATION_ROLE ( 'design_owner' ) ;
#169 = LOCAL_TIME ( 11, 2, 38.00000000000000000, #126 ) ;
#170 = PERSON_AND_ORGANIZATION ( #119, #210 ) ;
#171 = PERSON_AND_ORGANIZATION ( #119, #210 ) ;
#172 = SHAPE_DEFINITION_REPRESENTATION ( #112, #109 ) ;
#173 = COORDINATED_UNIVERSAL_TIME_OFFSET ( 1, 0, .AHEAD. ) ;
#174 = CARTESIAN_POINT ( 'NONE',  ( 2.779219145719134403E-13, -7.189289034394536528E-15, 79.60000000000000853 ) ) ;
#175 = FACE_BOUND ( 'NONE', #212, .T. ) ;
#176 = AXIS2_PLACEMENT_3D ( 'NONE', #86, #198, #221 ) ;
#177 = ORIENTED_EDGE ( 'NONE', *, *, #85, .F. ) ;
#178 = ORIENTED_EDGE ( 'NONE', *, *, #154, .T. ) ;
#179 = VERTEX_POINT ( 'NONE', #7 ) ;
#180 = DIRECTION ( 'NONE',  ( -3.491481338843133355E-15, -4.644081262937748077E-16, -1.000000000000000000 ) ) ;
#181 = DIRECTION ( 'NONE',  ( 0.0000000000000000000, 1.000000000000000000, 0.0000000000000000000 ) ) ;
#182 = AXIS2_PLACEMENT_3D ( 'NONE', #25, #121, #123 ) ;
#183 = FACE_OUTER_BOUND ( 'NONE', #129, .T. ) ;
#184 = APPROVAL_STATUS ( 'not_yet_approved' ) ;
#185 = CONICAL_SURFACE ( 'NONE', #45, 1.873059892324148823, 0.5235987755982979275 ) ;
#186 = LOCAL_TIME ( 11, 2, 38.00000000000000000, #12 ) ;
#187 = COORDINATED_UNIVERSAL_TIME_OFFSET ( 1, 0, .AHEAD. ) ;
#188 = ADVANCED_FACE ( 'NONE', ( #183 ), #140, .T. ) ;
#189 = UNCERTAINTY_MEASURE_WITH_UNIT (LENGTH_MEASURE( 1.000000000000000082E-05 ), #161, 'distance_accuracy_value', 'NONE');
#190 = CC_DESIGN_PERSON_AND_ORGANIZATION_ASSIGNMENT ( #71, #240, ( #5 ) ) ;
#191 = AXIS2_PLACEMENT_3D ( 'NONE', #115, #38, #100 ) ;
#192 = ADVANCED_FACE ( 'NONE', ( #230 ), #8, .T. ) ;
#193 = DIRECTION ( 'NONE',  ( 3.491481338843133355E-15, 4.644081262937748077E-16, 1.000000000000000000 ) ) ;
#194 = FACE_BOUND ( 'NONE', #157, .T. ) ;
#195 = CARTESIAN_POINT ( 'NONE',  ( 2.793185071074506684E-13, -7.225416114969383207E-15, 80.00000000000000000 ) ) ;
#196 = EDGE_LOOP ( 'NONE', ( #159 ) ) ;
#197 = FACE_OUTER_BOUND ( 'NONE', #77, .T. ) ;
#198 = DIRECTION ( 'NONE',  ( -3.491481338843133355E-15, 9.031770143711729009E-17, -1.000000000000000000 ) ) ;
#199 = CLOSED_SHELL ( 'NONE', ( #98, #165, #66, #192 ) ) ;
#200 = VERTEX_POINT ( 'NONE', #233 ) ;
#201 = DIRECTION ( 'NONE',  ( -3.491481338843133355E-15, 9.031770143711729009E-17, -1.000000000000000000 ) ) ;
#202 = CARTESIAN_POINT ( 'NONE',  ( 4.822338060001012795E-14, 2.103999999999998316, 13.81172514471707125 ) ) ;
#203 = APPROVAL_ROLE ( '' ) ;
#204 = CIRCLE ( 'NONE', #232, 1.599999999999994982 ) ;
#205 = CC_DESIGN_APPROVAL ( #76, ( #19 ) ) ;
#206 = CALENDAR_DATE ( 2021, 26, 11 ) ;
#207 = ADVANCED_FACE ( 'NONE', ( #24, #69 ), #103, .T. ) ;
#208 = APPLICATION_PROTOCOL_DEFINITION ( 'international standard', 'config_control_design', 1994, #39 ) ;
#209 = AXIS2_PLACEMENT_3D ( 'NONE', #242, #133, #226 ) ;
#210 = ORGANIZATION ( 'UNSPECIFIED', 'UNSPECIFIED', '' ) ;
#211 = ORIENTED_EDGE ( 'NONE', *, *, #82, .T. ) ;
#212 = EDGE_LOOP ( 'NONE', ( #155 ) ) ;
#213 = DIRECTION ( 'NONE',  ( -3.153425691349006731E-31, -1.000000000000000000, -9.031770143711729009E-17 ) ) ;
#214 = DIRECTION ( 'NONE',  ( 0.0000000000000000000, 1.000000000000000000, 0.0000000000000000000 ) ) ;
#215 = DIRECTION ( 'NONE',  ( -3.491481338843133355E-15, 9.031770143711729009E-17, -1.000000000000000000 ) ) ;
#216 = CC_DESIGN_PERSON_AND_ORGANIZATION_ASSIGNMENT ( #89, #223, ( #16 ) ) ;
#217 = FACE_OUTER_BOUND ( 'NONE', #22, .T. ) ;
#218 = MECHANICAL_CONTEXT ( 'NONE', #26, 'mechanical' ) ;
#219 = CIRCLE ( 'NONE', #160, 2.103999999999991655 ) ;
#220 = CARTESIAN_POINT ( 'NONE',  ( 4.822338060001012795E-14, -1.247443267952082001E-15, 13.81172514471707125 ) ) ;
#221 = DIRECTION ( 'NONE',  ( 3.153425691349006731E-31, 1.000000000000000000, 9.031770143711729009E-17 ) ) ;
#222 = CONICAL_SURFACE ( 'NONE', #156, 1.999999999999995337, 0.7853981633974516097 ) ;
#223 = PERSON_AND_ORGANIZATION_ROLE ( 'design_supplier' ) ;
#224 = APPROVAL_ROLE ( '' ) ;
#225 = PLANE ( 'NONE',  #209 ) ;
#226 = DIRECTION ( 'NONE',  ( 1.621472306561819687E-30, -1.000000000000000000, 4.644081262937748077E-16 ) ) ;
#227 = DIRECTION ( 'NONE',  ( 0.0000000000000000000, 1.000000000000000000, 0.0000000000000000000 ) ) ;
#228 = DIRECTION ( 'NONE',  ( -3.491481338843133355E-15, 9.031770143711729009E-17, -1.000000000000000000 ) ) ;
#229 = ORIENTED_EDGE ( 'NONE', *, *, #154, .F. ) ;
#230 = FACE_OUTER_BOUND ( 'NONE', #14, .T. ) ;
#231 = DIRECTION ( 'NONE',  ( 0.0000000000000000000, 0.0000000000000000000, 1.000000000000000000 ) ) ;
#232 = AXIS2_PLACEMENT_3D ( 'NONE', #195, #60, #21 ) ;
#233 = CARTESIAN_POINT ( 'NONE',  ( 4.885231259955590439E-14, 1.999999999999990452, 13.99185842870425134 ) ) ;
#234 = DIRECTION ( 'NONE',  ( 0.0000000000000000000, 1.000000000000000000, 0.0000000000000000000 ) ) ;
#235 = CC_DESIGN_PERSON_AND_ORGANIZATION_ASSIGNMENT ( #148, #110, ( #16 ) ) ;
#236 = DATE_AND_TIME ( #75, #151 ) ;
#237 = CIRCLE ( 'NONE', #84, 2.103999999999999648 ) ;
#238 = PERSON_AND_ORGANIZATION ( #119, #210 ) ;
#239 = APPROVAL_DATE_TIME ( #32, #11 ) ;
#240 = PERSON_AND_ORGANIZATION_ROLE ( 'classification_officer' ) ;
#241 = ORIENTED_EDGE ( 'NONE', *, *, #144, .F. ) ;
#242 = CARTESIAN_POINT ( 'NONE',  ( 4.822338060001012164E-14, 6.414277395342669588E-15, 13.81172514471706947 ) ) ;
#243 = CIRCLE ( 'NONE', #191, 1.999999999999991784 ) ;
ENDSEC;
END-ISO-10303-21;
