ISO-10303-21;
HEADER;
FILE_DESCRIPTION (( 'STEP AP203' ),
    '1' );
FILE_NAME ('321323.step',
    '2021-11-26T10:02:38',
    ( '' ),
    ( '' ),
    'SwSTEP 2.0',
    'SolidWorks 2019',
    '' );
FILE_SCHEMA (( 'CONFIG_CONTROL_DESIGN' ));
ENDSEC;

DATA;
#1 = MECHANICAL_CONTEXT ( 'NONE', #173, 'mechanical' ) ;
#2 = PERSON_AND_ORGANIZATION ( #135, #238 ) ;
#3 = CALENDAR_DATE ( 2021, 26, 11 ) ;
#4 = CIRCLE ( 'NONE', #27, 2.098999999999991761 ) ;
#5 = DIRECTION ( 'NONE',  ( 1.619920373038968072E-30, -1.000000000000000000, 4.639636348667159210E-16 ) ) ;
#6 = EDGE_LOOP ( 'NONE', ( #105 ) ) ;
#7 = AXIS2_PLACEMENT_3D ( 'NONE', #89, #130, #113 ) ;
#8 = DIRECTION ( 'NONE',  ( -1.619920373038968422E-30, 1.000000000000000000, -4.639636348667159210E-16 ) ) ;
#9 = APPROVAL ( #243, 'UNSPECIFIED' ) ;
#10 = FACE_BOUND ( 'NONE', #185, .T. ) ;
#11 = ORIENTED_EDGE ( 'NONE', *, *, #216, .F. ) ;
#12 = AXIS2_PLACEMENT_3D ( 'NONE', #191, #17, #154 ) ;
#13 = DIRECTION ( 'NONE',  ( -3.491481338843133355E-15, 9.031770143711729009E-17, -1.000000000000000000 ) ) ;
#14 = DIRECTION ( 'NONE',  ( -3.491481338843133355E-15, 9.031770143711729009E-17, -1.000000000000000000 ) ) ;
#15 = EDGE_CURVE ( 'NONE', #55, #55, #140, .T. ) ;
#16 = CIRCLE ( 'NONE', #163, 2.098999999999997979 ) ;
#17 = DIRECTION ( 'NONE',  ( 3.491481338843133355E-15, -9.031770143711729009E-17, 1.000000000000000000 ) ) ;
#18 = PERSON_AND_ORGANIZATION ( #135, #238 ) ;
#19 = DIRECTION ( 'NONE',  ( 0.0000000000000000000, 0.0000000000000000000, 1.000000000000000000 ) ) ;
#20 = PERSON_AND_ORGANIZATION_ROLE ( 'classification_officer' ) ;
#21 = PRODUCT_DEFINITION_SHAPE ( 'NONE', 'NONE',  #117 ) ;
#22 = FACE_OUTER_BOUND ( 'NONE', #87, .T. ) ;
#23 = ORIENTED_EDGE ( 'NONE', *, *, #86, .T. ) ;
#24 = APPROVAL ( #137, 'UNSPECIFIED' ) ;
#25 = EDGE_LOOP ( 'NONE', ( #23 ) ) ;
#26 = AXIS2_PLACEMENT_3D ( 'NONE', #45, #122, #5 ) ;
#27 = AXIS2_PLACEMENT_3D ( 'NONE', #200, #128, #221 ) ;
#28 = CARTESIAN_POINT ( 'NONE',  ( 4.825361771537290300E-14, -1.248225442190641691E-15, 13.82038539875491523 ) ) ;
#29 = FACE_OUTER_BOUND ( 'NONE', #6, .T. ) ;
#30 = CC_DESIGN_APPROVAL ( #9, ( #148 ) ) ;
#31 = DIRECTION ( 'NONE',  ( 0.0000000000000000000, 1.000000000000000000, 0.0000000000000000000 ) ) ;
#32 = DIRECTION ( 'NONE',  ( 3.153425691349006731E-31, 1.000000000000000000, 9.031770143711729009E-17 ) ) ;
#33 = CARTESIAN_POINT ( 'NONE',  ( 4.885231259955590439E-14, -1.263712492114123682E-15, 13.99185842870425134 ) ) ;
#34 = LOCAL_TIME ( 11, 2, 38.00000000000000000, #226 ) ;
#35 = DATE_TIME_ROLE ( 'classification_date' ) ;
#36 = PERSON_AND_ORGANIZATION ( #135, #238 ) ;
#37 = APPROVAL_ROLE ( '' ) ;
#38 = PERSON_AND_ORGANIZATION ( #135, #238 ) ;
#39 = PERSON_AND_ORGANIZATION_ROLE ( 'creator' ) ;
#40 = DIRECTION ( 'NONE',  ( -3.491481338843133355E-15, 9.031770143711729009E-17, -1.000000000000000000 ) ) ;
#41 = CC_DESIGN_SECURITY_CLASSIFICATION ( #143, ( #148 ) ) ;
#42 = CARTESIAN_POINT ( 'NONE',  ( 0.0000000000000000000, 0.0000000000000000000, 0.0000000000000000000 ) ) ;
#43 = ADVANCED_FACE ( 'NONE', ( #22, #202 ), #237, .T. ) ;
#44 = DIRECTION ( 'NONE',  ( 1.619920373038968072E-30, -1.000000000000000000, 4.639636348667159210E-16 ) ) ;
#45 = CARTESIAN_POINT ( 'NONE',  ( 4.825361771537291562E-14, 6.412156244865218711E-15, 13.82038539875491878 ) ) ;
#46 = CONICAL_SURFACE ( 'NONE', #198, 1.868059892324148263, 0.5235987755982979275 ) ;
#47 = CC_DESIGN_APPROVAL ( #109, ( #143 ) ) ;
#48 = DIRECTION ( 'NONE',  ( 3.491481338843133355E-15, 4.639636348667159210E-16, 1.000000000000000000 ) ) ;
#49 = MANIFOLD_SOLID_BREP ( 'Corps-Déplacer/Copier1[1]', #177 ) ;
#50 = VERTEX_POINT ( 'NONE', #67 ) ;
#51 = CYLINDRICAL_SURFACE ( 'NONE', #83, 1.999999999999993561 ) ;
#52 = FACE_OUTER_BOUND ( 'NONE', #147, .T. ) ;
#53 = AXIS2_PLACEMENT_3D ( 'NONE', #69, #150, #174 ) ;
#54 = CARTESIAN_POINT ( 'NONE',  ( 2.793185071074506684E-13, -7.225416114969383207E-15, 80.00000000000000000 ) ) ;
#55 = VERTEX_POINT ( 'NONE', #132 ) ;
#56 = APPROVAL_DATE_TIME ( #242, #109 ) ;
#57 = APPROVAL_PERSON_ORGANIZATION ( #193, #24, #229 ) ;
#58 = CALENDAR_DATE ( 2021, 26, 11 ) ;
#59 = CALENDAR_DATE ( 2021, 26, 11 ) ;
#60 = AXIS2_PLACEMENT_3D ( 'NONE', #28, #241, #31 ) ;
#61 = ADVANCED_FACE ( 'NONE', ( #82 ), #217, .T. ) ;
#62 = DATE_AND_TIME ( #3, #126 ) ;
#63 = PRODUCT_RELATED_PRODUCT_CATEGORY ( 'detail', '', ( #231 ) ) ;
#64 = ORIENTED_EDGE ( 'NONE', *, *, #106, .F. ) ;
#65 = CARTESIAN_POINT ( 'NONE',  ( 2.779219145719134403E-13, -7.189289034394536528E-15, 79.60000000000000853 ) ) ;
#66 = CARTESIAN_POINT ( 'NONE',  ( 3.026108277632868619E-30, 4.021227839229996438E-31, 8.667118577914377561E-16 ) ) ;
#67 = CARTESIAN_POINT ( 'NONE',  ( 4.825361771537290300E-14, 2.098999999999998423, 13.82038539875491523 ) ) ;
#68 = CARTESIAN_POINT ( 'NONE',  ( 4.885231259955590439E-14, 1.999999999999990452, 13.99185842870425134 ) ) ;
#69 = CARTESIAN_POINT ( 'NONE',  ( 4.825361771537290300E-14, -1.248225442190641691E-15, 13.82038539875491523 ) ) ;
#70 = LOCAL_TIME ( 11, 2, 38.00000000000000000, #155 ) ;
#71 = PLANE ( 'NONE',  #194 ) ;
#72 = CC_DESIGN_PERSON_AND_ORGANIZATION_ASSIGNMENT ( #18, #160, ( #148 ) ) ;
#73 = COORDINATED_UNIVERSAL_TIME_OFFSET ( 1, 0, .AHEAD. ) ;
#74 = PERSON_AND_ORGANIZATION_ROLE ( 'design_owner' ) ;
#75 = APPROVAL_ROLE ( '' ) ;
#76 = EDGE_CURVE ( 'NONE', #209, #209, #92, .T. ) ;
#77 = ADVANCED_FACE ( 'NONE', ( #125, #10 ), #46, .T. ) ;
#78 = APPROVAL_DATE_TIME ( #175, #24 ) ;
#79 = LOCAL_TIME ( 11, 2, 38.00000000000000000, #73 ) ;
#80 = CC_DESIGN_PERSON_AND_ORGANIZATION_ASSIGNMENT ( #159, #119, ( #148 ) ) ;
#81 = EDGE_LOOP ( 'NONE', ( #146 ) ) ;
#82 = FACE_OUTER_BOUND ( 'NONE', #199, .T. ) ;
#83 = AXIS2_PLACEMENT_3D ( 'NONE', #131, #153, #222 ) ;
#84 = ORIENTED_EDGE ( 'NONE', *, *, #106, .T. ) ;
#85 = EDGE_LOOP ( 'NONE', ( #214 ) ) ;
#86 = EDGE_CURVE ( 'NONE', #94, #94, #16, .T. ) ;
#87 = EDGE_LOOP ( 'NONE', ( #84 ) ) ;
#88 = APPLICATION_CONTEXT ( 'configuration controlled 3d designs of mechanical parts and assemblies' ) ;
#89 = CARTESIAN_POINT ( 'NONE',  ( -1.513054138816434310E-30, 1.868059892324148263, -4.333559288957188781E-16 ) ) ;
#90 = CARTESIAN_POINT ( 'NONE',  ( 1.396592535537252948E-15, 2.098999999999997979, 0.3999999999999999112 ) ) ;
#91 =( NAMED_UNIT ( * ) PLANE_ANGLE_UNIT ( ) SI_UNIT ( $, .RADIAN. ) );
#92 = CIRCLE ( 'NONE', #227, 1.999999999999995337 ) ;
#93 = CARTESIAN_POINT ( 'NONE',  ( 4.825361771537290300E-14, 2.098999999999998423, 13.82038539875491523 ) ) ;
#94 = VERTEX_POINT ( 'NONE', #90 ) ;
#95 = DATE_AND_TIME ( #59, #34 ) ;
#96 = SECURITY_CLASSIFICATION_LEVEL ( 'unclassified' ) ;
#97 = CC_DESIGN_APPROVAL ( #24, ( #117 ) ) ;
#98 = CC_DESIGN_DATE_AND_TIME_ASSIGNMENT ( #62, #116, ( #117 ) ) ;
#99 = CALENDAR_DATE ( 2021, 26, 11 ) ;
#100 = APPROVAL_STATUS ( 'not_yet_approved' ) ;
#101 = CIRCLE ( 'NONE', #60, 2.098999999999999755 ) ;
#102 = DIRECTION ( 'NONE',  ( 0.0000000000000000000, 1.000000000000000000, 0.0000000000000000000 ) ) ;
#103 = ORIENTED_EDGE ( 'NONE', *, *, #15, .F. ) ;
#104 = EDGE_LOOP ( 'NONE', ( #215 ) ) ;
#105 = ORIENTED_EDGE ( 'NONE', *, *, #76, .F. ) ;
#106 = EDGE_CURVE ( 'NONE', #112, #112, #4, .T. ) ;
#107 = EDGE_CURVE ( 'NONE', #240, #240, #152, .T. ) ;
#108 = CARTESIAN_POINT ( 'NONE',  ( 2.793185071074506684E-13, 1.599999999999987876, 80.00000000000000000 ) ) ;
#109 = APPROVAL ( #100, 'UNSPECIFIED' ) ;
#110 = CONICAL_SURFACE ( 'NONE', #171, 1.999999999999995337, 0.7853981633974516097 ) ;
#111 = FACE_OUTER_BOUND ( 'NONE', #165, .T. ) ;
#112 = VERTEX_POINT ( 'NONE', #93 ) ;
#113 = DIRECTION ( 'NONE',  ( -1.619920373038968072E-30, 1.000000000000000000, -4.639636348667159210E-16 ) ) ;
#114 = AXIS2_PLACEMENT_3D ( 'NONE', #181, #233, #184 ) ;
#115 = CARTESIAN_POINT ( 'NONE',  ( 4.825361771537291562E-14, 2.098999999999998423, 13.82038539875491878 ) ) ;
#116 = DATE_TIME_ROLE ( 'creation_date' ) ;
#117 = PRODUCT_DEFINITION ( 'UNKNOWN', '', #148, #176 ) ;
#118 = COORDINATED_UNIVERSAL_TIME_OFFSET ( 1, 0, .AHEAD. ) ;
#119 = PERSON_AND_ORGANIZATION_ROLE ( 'creator' ) ;
#120 = DATE_AND_TIME ( #58, #70 ) ;
#121 = CARTESIAN_POINT ( 'NONE',  ( 1.396592535537256300E-15, 1.855854539466867924E-16, 0.4000000000000009104 ) ) ;
#122 = DIRECTION ( 'NONE',  ( 3.491481338843133355E-15, 4.639636348667159210E-16, 1.000000000000000000 ) ) ;
#123 = DIRECTION ( 'NONE',  ( -1.651583563552657519E-30, 1.000000000000000000, -4.648794450866865187E-16 ) ) ;
#124 = ADVANCED_FACE ( 'NONE', ( #129 ), #71, .T. ) ;
#125 = FACE_OUTER_BOUND ( 'NONE', #25, .T. ) ;
#126 = LOCAL_TIME ( 11, 2, 38.00000000000000000, #157 ) ;
#127 = DIRECTION ( 'NONE',  ( -3.491481338843133355E-15, -4.639636348667159210E-16, -1.000000000000000000 ) ) ;
#128 = DIRECTION ( 'NONE',  ( -3.491481338843133355E-15, -4.639636348667159210E-16, -1.000000000000000000 ) ) ;
#129 = FACE_OUTER_BOUND ( 'NONE', #236, .T. ) ;
#130 = DIRECTION ( 'NONE',  ( -3.491481338843133355E-15, -4.639636348667159210E-16, -1.000000000000000000 ) ) ;
#131 = CARTESIAN_POINT ( 'NONE',  ( 0.0000000000000000000, 0.0000000000000000000, 0.0000000000000000000 ) ) ;
#132 = CARTESIAN_POINT ( 'NONE',  ( 0.0000000000000000000, 1.868059892324148263, 0.0000000000000000000 ) ) ;
#133 = MANIFOLD_SOLID_BREP ( 'Corps-Déplacer/Copier1[2]', #161 ) ;
#134 = SHAPE_DEFINITION_REPRESENTATION ( #21, #230 ) ;
#135 = PERSON ( 'UNSPECIFIED', 'UNSPECIFIED', 'UNSPECIFIED', ('UNSPECIFIED'), ('UNSPECIFIED'), ('UNSPECIFIED') ) ;
#136 = AXIS2_PLACEMENT_3D ( 'NONE', #33, #207, #239 ) ;
#137 = APPROVAL_STATUS ( 'not_yet_approved' ) ;
#138 = PERSON_AND_ORGANIZATION ( #135, #238 ) ;
#139 = APPLICATION_PROTOCOL_DEFINITION ( 'international standard', 'config_control_design', 1994, #173 ) ;
#140 = CIRCLE ( 'NONE', #114, 1.868059892324148263 ) ;
#141 = DIRECTION ( 'NONE',  ( 1.000000000000000000, 0.0000000000000000000, 0.0000000000000000000 ) ) ;
#142 = ORIENTED_EDGE ( 'NONE', *, *, #107, .T. ) ;
#143 = SECURITY_CLASSIFICATION ( '', '', #96 ) ;
#144 = EDGE_LOOP ( 'NONE', ( #142 ) ) ;
#145 = CC_DESIGN_PERSON_AND_ORGANIZATION_ASSIGNMENT ( #38, #39, ( #117 ) ) ;
#146 = ORIENTED_EDGE ( 'NONE', *, *, #216, .T. ) ;
#147 = EDGE_LOOP ( 'NONE', ( #182 ) ) ;
#148 = PRODUCT_DEFINITION_FORMATION_WITH_SPECIFIED_SOURCE ( 'ANY', '', #231, .NOT_KNOWN. ) ;
#149 = PLANE ( 'NONE',  #12 ) ;
#150 = DIRECTION ( 'NONE',  ( -3.491481338843133355E-15, 9.031770143711729009E-17, -1.000000000000000000 ) ) ;
#151 = FACE_OUTER_BOUND ( 'NONE', #180, .T. ) ;
#152 = CIRCLE ( 'NONE', #136, 1.999999999999991784 ) ;
#153 = DIRECTION ( 'NONE',  ( -3.491481338843133355E-15, 9.031770143711729009E-17, -1.000000000000000000 ) ) ;
#154 = DIRECTION ( 'NONE',  ( -3.153425691349006731E-31, -1.000000000000000000, -9.031770143711729009E-17 ) ) ;
#155 = COORDINATED_UNIVERSAL_TIME_OFFSET ( 1, 0, .AHEAD. ) ;
#156 = CC_DESIGN_DATE_AND_TIME_ASSIGNMENT ( #95, #35, ( #143 ) ) ;
#157 = COORDINATED_UNIVERSAL_TIME_OFFSET ( 1, 0, .AHEAD. ) ;
#158 = LOCAL_TIME ( 11, 2, 38.00000000000000000, #118 ) ;
#159 = PERSON_AND_ORGANIZATION ( #135, #238 ) ;
#160 = PERSON_AND_ORGANIZATION_ROLE ( 'design_supplier' ) ;
#161 = CLOSED_SHELL ( 'NONE', ( #61, #43, #77, #195 ) ) ;
#162 = ORIENTED_EDGE ( 'NONE', *, *, #170, .T. ) ;
#163 = AXIS2_PLACEMENT_3D ( 'NONE', #121, #197, #123 ) ;
#164 = CC_DESIGN_PERSON_AND_ORGANIZATION_ASSIGNMENT ( #2, #74, ( #231 ) ) ;
#165 = EDGE_LOOP ( 'NONE', ( #234 ) ) ;
#166 = EDGE_LOOP ( 'NONE', ( #213 ) ) ;
#167 = FACE_OUTER_BOUND ( 'NONE', #85, .T. ) ;
#168 = DIRECTION ( 'NONE',  ( 0.0000000000000000000, 1.000000000000000000, 0.0000000000000000000 ) ) ;
#169 = PLANE ( 'NONE',  #7 ) ;
#170 = EDGE_CURVE ( 'NONE', #50, #50, #101, .T. ) ;
#171 = AXIS2_PLACEMENT_3D ( 'NONE', #187, #13, #189 ) ;
#172 =( LENGTH_UNIT ( ) NAMED_UNIT ( * ) SI_UNIT ( .MILLI., .METRE. ) );
#173 = APPLICATION_CONTEXT ( 'configuration controlled 3d designs of mechanical parts and assemblies' ) ;
#174 = DIRECTION ( 'NONE',  ( 0.0000000000000000000, 1.000000000000000000, 0.0000000000000000000 ) ) ;
#175 = DATE_AND_TIME ( #99, #79 ) ;
#176 = DESIGN_CONTEXT ( 'detailed design', #88, 'design' ) ;
#177 = CLOSED_SHELL ( 'NONE', ( #179, #235, #206, #188, #124 ) ) ;
#178 =( NAMED_UNIT ( * ) SI_UNIT ( $, .STERADIAN. ) SOLID_ANGLE_UNIT ( ) );
#179 = ADVANCED_FACE ( 'NONE', ( #151 ), #149, .T. ) ;
#180 = EDGE_LOOP ( 'NONE', ( #11 ) ) ;
#181 = CARTESIAN_POINT ( 'NONE',  ( 3.026108277632868619E-30, 4.021227839229996438E-31, 8.667118577914377561E-16 ) ) ;
#182 = ORIENTED_EDGE ( 'NONE', *, *, #170, .F. ) ;
#183 =( GEOMETRIC_REPRESENTATION_CONTEXT ( 3 ) GLOBAL_UNCERTAINTY_ASSIGNED_CONTEXT ( ( #225 ) ) GLOBAL_UNIT_ASSIGNED_CONTEXT ( ( #172, #91, #178 ) ) REPRESENTATION_CONTEXT ( 'NONE', 'WORKASPACE' ) );
#184 = DIRECTION ( 'NONE',  ( -1.619920373038968072E-30, 1.000000000000000000, -4.639636348667159210E-16 ) ) ;
#185 = EDGE_LOOP ( 'NONE', ( #103 ) ) ;
#186 = FACE_BOUND ( 'NONE', #144, .T. ) ;
#187 = CARTESIAN_POINT ( 'NONE',  ( 2.779219145719134403E-13, -7.189289034394536528E-15, 79.60000000000000853 ) ) ;
#188 = ADVANCED_FACE ( 'NONE', ( #186, #52 ), #205, .T. ) ;
#189 = DIRECTION ( 'NONE',  ( 0.0000000000000000000, 1.000000000000000000, 0.0000000000000000000 ) ) ;
#190 = CC_DESIGN_PERSON_AND_ORGANIZATION_ASSIGNMENT ( #212, #20, ( #143 ) ) ;
#191 = CARTESIAN_POINT ( 'NONE',  ( 2.793185071074506684E-13, -7.225416114969383207E-15, 80.00000000000000000 ) ) ;
#192 = CARTESIAN_POINT ( 'NONE',  ( 0.0000000000000000000, 0.0000000000000000000, 0.0000000000000000000 ) ) ;
#193 = PERSON_AND_ORGANIZATION ( #135, #238 ) ;
#194 = AXIS2_PLACEMENT_3D ( 'NONE', #115, #14, #32 ) ;
#195 = ADVANCED_FACE ( 'NONE', ( #219 ), #169, .T. ) ;
#196 = APPROVAL_DATE_TIME ( #120, #9 ) ;
#197 = DIRECTION ( 'NONE',  ( -3.491481338843133355E-15, -4.639636348667159210E-16, -1.000000000000000000 ) ) ;
#198 = AXIS2_PLACEMENT_3D ( 'NONE', #66, #48, #44 ) ;
#199 = EDGE_LOOP ( 'NONE', ( #64 ) ) ;
#200 = CARTESIAN_POINT ( 'NONE',  ( 4.825361771537290931E-14, 6.412156244865218711E-15, 13.82038539875491701 ) ) ;
#201 = AXIS2_PLACEMENT_3D ( 'NONE', #42, #127, #8 ) ;
#202 = FACE_OUTER_BOUND ( 'NONE', #104, .T. ) ;
#203 = VERTEX_POINT ( 'NONE', #108 ) ;
#204 = DIRECTION ( 'NONE',  ( -3.491481338843133355E-15, 9.031770143711729009E-17, -1.000000000000000000 ) ) ;
#205 = CONICAL_SURFACE ( 'NONE', #53, 2.098999999999999755, 0.5235987755982889347 ) ;
#206 = ADVANCED_FACE ( 'NONE', ( #111, #167 ), #51, .T. ) ;
#207 = DIRECTION ( 'NONE',  ( -3.491481338843133355E-15, 9.031770143711729009E-17, -1.000000000000000000 ) ) ;
#208 = CARTESIAN_POINT ( 'NONE',  ( 2.779219145719134403E-13, 1.999999999999988010, 79.60000000000000853 ) ) ;
#209 = VERTEX_POINT ( 'NONE', #208 ) ;
#210 = APPROVAL_PERSON_ORGANIZATION ( #138, #109, #37 ) ;
#211 = APPLICATION_PROTOCOL_DEFINITION ( 'international standard', 'config_control_design', 1994, #88 ) ;
#212 = PERSON_AND_ORGANIZATION ( #135, #238 ) ;
#213 = ORIENTED_EDGE ( 'NONE', *, *, #15, .T. ) ;
#214 = ORIENTED_EDGE ( 'NONE', *, *, #107, .F. ) ;
#215 = ORIENTED_EDGE ( 'NONE', *, *, #86, .F. ) ;
#216 = EDGE_CURVE ( 'NONE', #203, #203, #224, .T. ) ;
#217 = PLANE ( 'NONE',  #26 ) ;
#218 = FACE_BOUND ( 'NONE', #81, .T. ) ;
#219 = FACE_OUTER_BOUND ( 'NONE', #166, .T. ) ;
#220 = AXIS2_PLACEMENT_3D ( 'NONE', #54, #204, #168 ) ;
#221 = DIRECTION ( 'NONE',  ( -2.936148557426955302E-30, 1.000000000000000000, -8.264523468207784547E-16 ) ) ;
#222 = DIRECTION ( 'NONE',  ( 3.153425691349006731E-31, 1.000000000000000000, 9.031770143711729009E-17 ) ) ;
#223 = CALENDAR_DATE ( 2021, 26, 11 ) ;
#224 = CIRCLE ( 'NONE', #220, 1.599999999999994982 ) ;
#225 = UNCERTAINTY_MEASURE_WITH_UNIT (LENGTH_MEASURE( 1.000000000000000082E-05 ), #172, 'distance_accuracy_value', 'NONE');
#226 = COORDINATED_UNIVERSAL_TIME_OFFSET ( 1, 0, .AHEAD. ) ;
#227 = AXIS2_PLACEMENT_3D ( 'NONE', #65, #40, #102 ) ;
#228 = AXIS2_PLACEMENT_3D ( 'NONE', #192, #19, #141 ) ;
#229 = APPROVAL_ROLE ( '' ) ;
#230 = ADVANCED_BREP_SHAPE_REPRESENTATION ( '321323', ( #49, #133, #228 ), #183 ) ;
#231 = PRODUCT ( '321323', '321323', '', ( #1 ) ) ;
#232 = APPROVAL_PERSON_ORGANIZATION ( #36, #9, #75 ) ;
#233 = DIRECTION ( 'NONE',  ( -3.491481338843133355E-15, -4.639636348667159210E-16, -1.000000000000000000 ) ) ;
#234 = ORIENTED_EDGE ( 'NONE', *, *, #76, .T. ) ;
#235 = ADVANCED_FACE ( 'NONE', ( #218, #29 ), #110, .T. ) ;
#236 = EDGE_LOOP ( 'NONE', ( #162 ) ) ;
#237 = CYLINDRICAL_SURFACE ( 'NONE', #201, 2.098999999999994870 ) ;
#238 = ORGANIZATION ( 'UNSPECIFIED', 'UNSPECIFIED', '' ) ;
#239 = DIRECTION ( 'NONE',  ( 0.0000000000000000000, 1.000000000000000000, 0.0000000000000000000 ) ) ;
#240 = VERTEX_POINT ( 'NONE', #68 ) ;
#241 = DIRECTION ( 'NONE',  ( -3.491481338843133355E-15, 9.031770143711729009E-17, -1.000000000000000000 ) ) ;
#242 = DATE_AND_TIME ( #223, #158 ) ;
#243 = APPROVAL_STATUS ( 'not_yet_approved' ) ;
ENDSEC;
END-ISO-10303-21;
