ISO-10303-21;
HEADER;
FILE_DESCRIPTION (( 'STEP AP203' ),
    '1' );
FILE_NAME ('321322.step',
    '2021-11-26T10:02:37',
    ( '' ),
    ( '' ),
    'SwSTEP 2.0',
    'SolidWorks 2019',
    '' );
FILE_SCHEMA (( 'CONFIG_CONTROL_DESIGN' ));
ENDSEC;

DATA;
#1 = AXIS2_PLACEMENT_3D ( 'NONE', #23, #188, #167 ) ;
#2 = CARTESIAN_POINT ( 'NONE',  ( 2.793185071074506684E-13, 1.599999999999987876, 80.00000000000000000 ) ) ;
#3 = DATE_AND_TIME ( #21, #193 ) ;
#4 = CARTESIAN_POINT ( 'NONE',  ( 4.885231259955590439E-14, -1.263712492114123682E-15, 13.99185842870425134 ) ) ;
#5 = DIRECTION ( 'NONE',  ( 0.0000000000000000000, 1.000000000000000000, 0.0000000000000000000 ) ) ;
#6 = CIRCLE ( 'NONE', #77, 1.863059892324148814 ) ;
#7 = DIRECTION ( 'NONE',  ( 0.0000000000000000000, 1.000000000000000000, 0.0000000000000000000 ) ) ;
#8 = CARTESIAN_POINT ( 'NONE',  ( 0.0000000000000000000, 1.863059892324148814, 0.0000000000000000000 ) ) ;
#9 = PERSON_AND_ORGANIZATION_ROLE ( 'creator' ) ;
#10 = CARTESIAN_POINT ( 'NONE',  ( 3.015120951997744111E-30, 4.002793725538778603E-31, 8.635649626575904160E-16 ) ) ;
#11 = PERSON_AND_ORGANIZATION ( #196, #67 ) ;
#12 = CARTESIAN_POINT ( 'NONE',  ( 4.828385483073569066E-14, 2.093999999999998085, 13.82904565279276277 ) ) ;
#13 = ORIENTED_EDGE ( 'NONE', *, *, #64, .T. ) ;
#14 = CALENDAR_DATE ( 2021, 26, 11 ) ;
#15 = CC_DESIGN_APPROVAL ( #98, ( #232 ) ) ;
#16 = PERSON_AND_ORGANIZATION ( #196, #67 ) ;
#17 = DIRECTION ( 'NONE',  ( 3.153425691349006731E-31, 1.000000000000000000, 9.031770143711729009E-17 ) ) ;
#18 = AXIS2_PLACEMENT_3D ( 'NONE', #81, #230, #211 ) ;
#19 = EDGE_LOOP ( 'NONE', ( #73 ) ) ;
#20 = ADVANCED_FACE ( 'NONE', ( #82 ), #137, .T. ) ;
#21 = CALENDAR_DATE ( 2021, 26, 11 ) ;
#22 = FACE_OUTER_BOUND ( 'NONE', #24, .T. ) ;
#23 = CARTESIAN_POINT ( 'NONE',  ( 2.793185071074506684E-13, -7.225416114969383207E-15, 80.00000000000000000 ) ) ;
#24 = EDGE_LOOP ( 'NONE', ( #235 ) ) ;
#25 = AXIS2_PLACEMENT_3D ( 'NONE', #39, #55, #184 ) ;
#26 = DIRECTION ( 'NONE',  ( -3.491481338843133355E-15, 9.031770143711729009E-17, -1.000000000000000000 ) ) ;
#27 = CC_DESIGN_PERSON_AND_ORGANIZATION_ASSIGNMENT ( #29, #31, ( #111 ) ) ;
#28 = DIRECTION ( 'NONE',  ( 0.0000000000000000000, 1.000000000000000000, 0.0000000000000000000 ) ) ;
#29 = PERSON_AND_ORGANIZATION ( #196, #67 ) ;
#30 = EDGE_CURVE ( 'NONE', #90, #90, #201, .T. ) ;
#31 = PERSON_AND_ORGANIZATION_ROLE ( 'creator' ) ;
#32 = AXIS2_PLACEMENT_3D ( 'NONE', #165, #239, #128 ) ;
#33 = PERSON_AND_ORGANIZATION ( #196, #67 ) ;
#34 = CIRCLE ( 'NONE', #129, 1.999999999999991784 ) ;
#35 = APPLICATION_PROTOCOL_DEFINITION ( 'international standard', 'config_control_design', 1994, #110 ) ;
#36 = CC_DESIGN_DATE_AND_TIME_ASSIGNMENT ( #37, #138, ( #232 ) ) ;
#37 = DATE_AND_TIME ( #154, #177 ) ;
#38 = LOCAL_TIME ( 11, 2, 37.00000000000000000, #135 ) ;
#39 = CARTESIAN_POINT ( 'NONE',  ( 2.793185071074506684E-13, -7.225416114969383207E-15, 80.00000000000000000 ) ) ;
#40 = DIRECTION ( 'NONE',  ( -3.491481338843133355E-15, 9.031770143711729009E-17, -1.000000000000000000 ) ) ;
#41 = CALENDAR_DATE ( 2021, 26, 11 ) ;
#42 = DIRECTION ( 'NONE',  ( -1.618370383271152585E-30, 1.000000000000000000, -4.635197001532258189E-16 ) ) ;
#43 = DATE_AND_TIME ( #14, #38 ) ;
#44 = EDGE_LOOP ( 'NONE', ( #203 ) ) ;
#45 = PERSON_AND_ORGANIZATION ( #196, #67 ) ;
#46 = EDGE_LOOP ( 'NONE', ( #233 ) ) ;
#47 = VERTEX_POINT ( 'NONE', #107 ) ;
#48 = AXIS2_PLACEMENT_3D ( 'NONE', #237, #136, #42 ) ;
#49 = CARTESIAN_POINT ( 'NONE',  ( 4.828385483073569066E-14, 2.093999999999998085, 13.82904565279276277 ) ) ;
#50 = AXIS2_PLACEMENT_3D ( 'NONE', #199, #106, #118 ) ;
#51 = PRODUCT_RELATED_PRODUCT_CATEGORY ( 'detail', '', ( #200 ) ) ;
#52 = AXIS2_PLACEMENT_3D ( 'NONE', #168, #185, #103 ) ;
#53 = EDGE_LOOP ( 'NONE', ( #13 ) ) ;
#54 = FACE_OUTER_BOUND ( 'NONE', #53, .T. ) ;
#55 = DIRECTION ( 'NONE',  ( -3.491481338843133355E-15, 9.031770143711729009E-17, -1.000000000000000000 ) ) ;
#56 = PERSON_AND_ORGANIZATION_ROLE ( 'design_supplier' ) ;
#57 = ADVANCED_FACE ( 'NONE', ( #171, #100 ), #102, .T. ) ;
#58 = FACE_OUTER_BOUND ( 'NONE', #46, .T. ) ;
#59 = DATE_AND_TIME ( #161, #146 ) ;
#60 =( LENGTH_UNIT ( ) NAMED_UNIT ( * ) SI_UNIT ( .MILLI., .METRE. ) );
#61 = EDGE_LOOP ( 'NONE', ( #130 ) ) ;
#62 = FACE_BOUND ( 'NONE', #213, .T. ) ;
#63 = DATE_AND_TIME ( #41, #225 ) ;
#64 = EDGE_CURVE ( 'NONE', #223, #223, #162, .T. ) ;
#65 = PLANE ( 'NONE',  #212 ) ;
#66 = SECURITY_CLASSIFICATION_LEVEL ( 'unclassified' ) ;
#67 = ORGANIZATION ( 'UNSPECIFIED', 'UNSPECIFIED', '' ) ;
#68 = ORIENTED_EDGE ( 'NONE', *, *, #89, .T. ) ;
#69 = CC_DESIGN_APPROVAL ( #163, ( #88 ) ) ;
#70 = ADVANCED_FACE ( 'NONE', ( #97 ), #105, .T. ) ;
#71 = DIRECTION ( 'NONE',  ( 0.0000000000000000000, 0.0000000000000000000, 1.000000000000000000 ) ) ;
#72 = APPROVAL_ROLE ( '' ) ;
#73 = ORIENTED_EDGE ( 'NONE', *, *, #30, .F. ) ;
#74 = DIRECTION ( 'NONE',  ( 0.0000000000000000000, 1.000000000000000000, 0.0000000000000000000 ) ) ;
#75 = FACE_OUTER_BOUND ( 'NONE', #123, .T. ) ;
#76 = EDGE_CURVE ( 'NONE', #194, #194, #133, .T. ) ;
#77 = AXIS2_PLACEMENT_3D ( 'NONE', #242, #218, #141 ) ;
#78 = DIRECTION ( 'NONE',  ( -3.491481338843133355E-15, 9.031770143711729009E-17, -1.000000000000000000 ) ) ;
#79 = FACE_OUTER_BOUND ( 'NONE', #207, .T. ) ;
#80 = COORDINATED_UNIVERSAL_TIME_OFFSET ( 1, 0, .AHEAD. ) ;
#81 = CARTESIAN_POINT ( 'NONE',  ( 4.828385483073569066E-14, 2.093999999999998085, 13.82904565279276277 ) ) ;
#82 = FACE_OUTER_BOUND ( 'NONE', #61, .T. ) ;
#83 = DIRECTION ( 'NONE',  ( -1.618370383271152234E-30, 1.000000000000000000, -4.635197001532257203E-16 ) ) ;
#84 = AXIS2_PLACEMENT_3D ( 'NONE', #209, #40, #7 ) ;
#85 = EDGE_CURVE ( 'NONE', #243, #243, #34, .T. ) ;
#86 = APPROVAL_ROLE ( '' ) ;
#87 = CC_DESIGN_PERSON_AND_ORGANIZATION_ASSIGNMENT ( #45, #56, ( #111 ) ) ;
#88 = SECURITY_CLASSIFICATION ( '', '', #66 ) ;
#89 = EDGE_CURVE ( 'NONE', #47, #47, #140, .T. ) ;
#90 = VERTEX_POINT ( 'NONE', #2 ) ;
#91 = EDGE_LOOP ( 'NONE', ( #148 ) ) ;
#92 = CC_DESIGN_APPROVAL ( #115, ( #111 ) ) ;
#93 = COORDINATED_UNIVERSAL_TIME_OFFSET ( 1, 0, .AHEAD. ) ;
#94 = AXIS2_PLACEMENT_3D ( 'NONE', #157, #78, #5 ) ;
#95 = EDGE_LOOP ( 'NONE', ( #68 ) ) ;
#96 = DIRECTION ( 'NONE',  ( -3.491481338843133355E-15, -4.635197001532257203E-16, -1.000000000000000000 ) ) ;
#97 = FACE_OUTER_BOUND ( 'NONE', #19, .T. ) ;
#98 = APPROVAL ( #179, 'UNSPECIFIED' ) ;
#99 = CARTESIAN_POINT ( 'NONE',  ( -1.507560475998872055E-30, 1.863059892324148814, -4.317824813287952080E-16 ) ) ;
#100 = FACE_OUTER_BOUND ( 'NONE', #91, .T. ) ;
#101 = VERTEX_POINT ( 'NONE', #12 ) ;
#102 = CONICAL_SURFACE ( 'NONE', #197, 2.093999999999999417, 0.5235987755982941527 ) ;
#103 = DIRECTION ( 'NONE',  ( -1.655527172825705459E-30, 1.000000000000000000, -4.659894724149736147E-16 ) ) ;
#104 = UNCERTAINTY_MEASURE_WITH_UNIT (LENGTH_MEASURE( 1.000000000000000082E-05 ), #60, 'distance_accuracy_value', 'NONE');
#105 = PLANE ( 'NONE',  #1 ) ;
#106 = DIRECTION ( 'NONE',  ( 3.491481338843133355E-15, 4.635197001532257203E-16, 1.000000000000000000 ) ) ;
#107 = CARTESIAN_POINT ( 'NONE',  ( 2.779219145719134403E-13, 1.999999999999988010, 79.60000000000000853 ) ) ;
#108 = EDGE_CURVE ( 'NONE', #101, #101, #222, .T. ) ;
#109 = MANIFOLD_SOLID_BREP ( 'Corps-Déplacer/Copier1[2]', #145 ) ;
#110 = APPLICATION_CONTEXT ( 'configuration controlled 3d designs of mechanical parts and assemblies' ) ;
#111 = PRODUCT_DEFINITION_FORMATION_WITH_SPECIFIED_SOURCE ( 'ANY', '', #200, .NOT_KNOWN. ) ;
#112 = ADVANCED_FACE ( 'NONE', ( #58, #75 ), #152, .T. ) ;
#113 =( GEOMETRIC_REPRESENTATION_CONTEXT ( 3 ) GLOBAL_UNCERTAINTY_ASSIGNED_CONTEXT ( ( #104 ) ) GLOBAL_UNIT_ASSIGNED_CONTEXT ( ( #60, #151, #124 ) ) REPRESENTATION_CONTEXT ( 'NONE', 'WORKASPACE' ) );
#114 = PERSON_AND_ORGANIZATION ( #196, #67 ) ;
#115 = APPROVAL ( #192, 'UNSPECIFIED' ) ;
#116 = CARTESIAN_POINT ( 'NONE',  ( 4.828385483073569066E-14, -1.249007616429201579E-15, 13.82904565279276277 ) ) ;
#117 = EDGE_LOOP ( 'NONE', ( #164 ) ) ;
#118 = DIRECTION ( 'NONE',  ( 1.618370383271152234E-30, -1.000000000000000000, 4.635197001532257203E-16 ) ) ;
#119 = VERTEX_POINT ( 'NONE', #8 ) ;
#120 = DIRECTION ( 'NONE',  ( 3.491481338843133355E-15, 4.635197001532257203E-16, 1.000000000000000000 ) ) ;
#121 = COORDINATED_UNIVERSAL_TIME_OFFSET ( 1, 0, .AHEAD. ) ;
#122 = AXIS2_PLACEMENT_3D ( 'NONE', #10, #120, #156 ) ;
#123 = EDGE_LOOP ( 'NONE', ( #134 ) ) ;
#124 =( NAMED_UNIT ( * ) SI_UNIT ( $, .STERADIAN. ) SOLID_ANGLE_UNIT ( ) );
#125 = FACE_OUTER_BOUND ( 'NONE', #117, .T. ) ;
#126 = SHAPE_DEFINITION_REPRESENTATION ( #202, #229 ) ;
#127 = FACE_OUTER_BOUND ( 'NONE', #95, .T. ) ;
#128 = DIRECTION ( 'NONE',  ( 0.0000000000000000000, 1.000000000000000000, 0.0000000000000000000 ) ) ;
#129 = AXIS2_PLACEMENT_3D ( 'NONE', #4, #149, #28 ) ;
#130 = ORIENTED_EDGE ( 'NONE', *, *, #76, .T. ) ;
#131 = CLOSED_SHELL ( 'NONE', ( #70, #155, #204, #57, #20 ) ) ;
#132 = EDGE_LOOP ( 'NONE', ( #181 ) ) ;
#133 = CIRCLE ( 'NONE', #84, 2.093999999999999417 ) ;
#134 = ORIENTED_EDGE ( 'NONE', *, *, #64, .F. ) ;
#135 = COORDINATED_UNIVERSAL_TIME_OFFSET ( 1, 0, .AHEAD. ) ;
#136 = DIRECTION ( 'NONE',  ( -3.491481338843133355E-15, -4.635197001532257203E-16, -1.000000000000000000 ) ) ;
#137 = PLANE ( 'NONE',  #18 ) ;
#138 = DATE_TIME_ROLE ( 'creation_date' ) ;
#139 = ADVANCED_FACE ( 'NONE', ( #54, #62 ), #180, .T. ) ;
#140 = CIRCLE ( 'NONE', #94, 1.999999999999995337 ) ;
#141 = DIRECTION ( 'NONE',  ( -1.618370383271152234E-30, 1.000000000000000000, -4.635197001532257203E-16 ) ) ;
#142 = FACE_BOUND ( 'NONE', #206, .T. ) ;
#143 = PERSON_AND_ORGANIZATION ( #196, #67 ) ;
#144 = PERSON_AND_ORGANIZATION_ROLE ( 'design_owner' ) ;
#145 = CLOSED_SHELL ( 'NONE', ( #214, #112, #139, #227 ) ) ;
#146 = LOCAL_TIME ( 11, 2, 37.00000000000000000, #172 ) ;
#147 = DIRECTION ( 'NONE',  ( 1.000000000000000000, 0.0000000000000000000, 0.0000000000000000000 ) ) ;
#148 = ORIENTED_EDGE ( 'NONE', *, *, #76, .F. ) ;
#149 = DIRECTION ( 'NONE',  ( -3.491481338843133355E-15, 9.031770143711729009E-17, -1.000000000000000000 ) ) ;
#150 = FACE_OUTER_BOUND ( 'NONE', #44, .T. ) ;
#151 =( NAMED_UNIT ( * ) PLANE_ANGLE_UNIT ( ) SI_UNIT ( $, .RADIAN. ) );
#152 = CYLINDRICAL_SURFACE ( 'NONE', #48, 2.093999999999994976 ) ;
#153 = AXIS2_PLACEMENT_3D ( 'NONE', #186, #173, #234 ) ;
#154 = CALENDAR_DATE ( 2021, 26, 11 ) ;
#155 = ADVANCED_FACE ( 'NONE', ( #142, #22 ), #159, .T. ) ;
#156 = DIRECTION ( 'NONE',  ( 1.618370383271152234E-30, -1.000000000000000000, 4.635197001532257203E-16 ) ) ;
#157 = CARTESIAN_POINT ( 'NONE',  ( 2.779219145719134403E-13, -7.189289034394536528E-15, 79.60000000000000853 ) ) ;
#158 = APPROVAL_STATUS ( 'not_yet_approved' ) ;
#159 = CONICAL_SURFACE ( 'NONE', #32, 1.999999999999995337, 0.7853981633974516097 ) ;
#160 = CYLINDRICAL_SURFACE ( 'NONE', #169, 1.999999999999993561 ) ;
#161 = CALENDAR_DATE ( 2021, 26, 11 ) ;
#162 = CIRCLE ( 'NONE', #52, 2.093999999999998529 ) ;
#163 = APPROVAL ( #158, 'UNSPECIFIED' ) ;
#164 = ORIENTED_EDGE ( 'NONE', *, *, #85, .F. ) ;
#165 = CARTESIAN_POINT ( 'NONE',  ( 2.779219145719134403E-13, -7.189289034394536528E-15, 79.60000000000000853 ) ) ;
#166 = DESIGN_CONTEXT ( 'detailed design', #110, 'design' ) ;
#167 = DIRECTION ( 'NONE',  ( -3.153425691349006731E-31, -1.000000000000000000, -9.031770143711729009E-17 ) ) ;
#168 = CARTESIAN_POINT ( 'NONE',  ( 1.396592535537256300E-15, 1.854078800612906973E-16, 0.4000000000000009104 ) ) ;
#169 = AXIS2_PLACEMENT_3D ( 'NONE', #190, #220, #17 ) ;
#170 = CC_DESIGN_PERSON_AND_ORGANIZATION_ASSIGNMENT ( #11, #210, ( #88 ) ) ;
#171 = FACE_BOUND ( 'NONE', #132, .T. ) ;
#172 = COORDINATED_UNIVERSAL_TIME_OFFSET ( 1, 0, .AHEAD. ) ;
#173 = DIRECTION ( 'NONE',  ( -3.491481338843133355E-15, -4.635197001532257203E-16, -1.000000000000000000 ) ) ;
#174 = APPROVAL_PERSON_ORGANIZATION ( #143, #163, #215 ) ;
#175 = APPLICATION_PROTOCOL_DEFINITION ( 'international standard', 'config_control_design', 1994, #182 ) ;
#176 = CC_DESIGN_DATE_AND_TIME_ASSIGNMENT ( #43, #191, ( #88 ) ) ;
#177 = LOCAL_TIME ( 11, 2, 37.00000000000000000, #80 ) ;
#178 = PERSON_AND_ORGANIZATION ( #196, #67 ) ;
#179 = APPROVAL_STATUS ( 'not_yet_approved' ) ;
#180 = CONICAL_SURFACE ( 'NONE', #122, 1.863059892324148814, 0.5235987755982979275 ) ;
#181 = ORIENTED_EDGE ( 'NONE', *, *, #85, .T. ) ;
#182 = APPLICATION_CONTEXT ( 'configuration controlled 3d designs of mechanical parts and assemblies' ) ;
#183 = MANIFOLD_SOLID_BREP ( 'Corps-Déplacer/Copier1[1]', #131 ) ;
#184 = DIRECTION ( 'NONE',  ( 0.0000000000000000000, 1.000000000000000000, 0.0000000000000000000 ) ) ;
#185 = DIRECTION ( 'NONE',  ( -3.491481338843133355E-15, -4.635197001532257203E-16, -1.000000000000000000 ) ) ;
#186 = CARTESIAN_POINT ( 'NONE',  ( 4.828385483073569697E-14, 6.410035094387771778E-15, 13.82904565279276454 ) ) ;
#187 = APPROVAL_DATE_TIME ( #63, #163 ) ;
#188 = DIRECTION ( 'NONE',  ( 3.491481338843133355E-15, -9.031770143711729009E-17, 1.000000000000000000 ) ) ;
#189 = AXIS2_PLACEMENT_3D ( 'NONE', #240, #71, #147 ) ;
#190 = CARTESIAN_POINT ( 'NONE',  ( 0.0000000000000000000, 0.0000000000000000000, 0.0000000000000000000 ) ) ;
#191 = DATE_TIME_ROLE ( 'classification_date' ) ;
#192 = APPROVAL_STATUS ( 'not_yet_approved' ) ;
#193 = LOCAL_TIME ( 11, 2, 37.00000000000000000, #93 ) ;
#194 = VERTEX_POINT ( 'NONE', #49 ) ;
#195 = CARTESIAN_POINT ( 'NONE',  ( 4.885231259955590439E-14, 1.999999999999990452, 13.99185842870425134 ) ) ;
#196 = PERSON ( 'UNSPECIFIED', 'UNSPECIFIED', 'UNSPECIFIED', ('UNSPECIFIED'), ('UNSPECIFIED'), ('UNSPECIFIED') ) ;
#197 = AXIS2_PLACEMENT_3D ( 'NONE', #116, #26, #74 ) ;
#198 = EDGE_CURVE ( 'NONE', #119, #119, #6, .T. ) ;
#199 = CARTESIAN_POINT ( 'NONE',  ( 4.828385483073569066E-14, 6.410035094387770200E-15, 13.82904565279276277 ) ) ;
#200 = PRODUCT ( '321322', '321322', '', ( #216 ) ) ;
#201 = CIRCLE ( 'NONE', #25, 1.599999999999994982 ) ;
#202 = PRODUCT_DEFINITION_SHAPE ( 'NONE', 'NONE',  #232 ) ;
#203 = ORIENTED_EDGE ( 'NONE', *, *, #108, .F. ) ;
#204 = ADVANCED_FACE ( 'NONE', ( #127, #125 ), #160, .T. ) ;
#205 = CC_DESIGN_SECURITY_CLASSIFICATION ( #88, ( #111 ) ) ;
#206 = EDGE_LOOP ( 'NONE', ( #224 ) ) ;
#207 = EDGE_LOOP ( 'NONE', ( #226 ) ) ;
#208 = APPROVAL_DATE_TIME ( #3, #98 ) ;
#209 = CARTESIAN_POINT ( 'NONE',  ( 4.828385483073569066E-14, -1.249007616429201579E-15, 13.82904565279276277 ) ) ;
#210 = PERSON_AND_ORGANIZATION_ROLE ( 'classification_officer' ) ;
#211 = DIRECTION ( 'NONE',  ( 3.153425691349006731E-31, 1.000000000000000000, 9.031770143711729009E-17 ) ) ;
#212 = AXIS2_PLACEMENT_3D ( 'NONE', #99, #96, #83 ) ;
#213 = EDGE_LOOP ( 'NONE', ( #228 ) ) ;
#214 = ADVANCED_FACE ( 'NONE', ( #150 ), #231, .T. ) ;
#215 = APPROVAL_ROLE ( '' ) ;
#216 = MECHANICAL_CONTEXT ( 'NONE', #182, 'mechanical' ) ;
#217 = CC_DESIGN_PERSON_AND_ORGANIZATION_ASSIGNMENT ( #114, #9, ( #232 ) ) ;
#218 = DIRECTION ( 'NONE',  ( -3.491481338843133355E-15, -4.635197001532257203E-16, -1.000000000000000000 ) ) ;
#219 = CARTESIAN_POINT ( 'NONE',  ( 1.396592535537252948E-15, 2.093999999999998529, 0.3999999999999999112 ) ) ;
#220 = DIRECTION ( 'NONE',  ( -3.491481338843133355E-15, 9.031770143711729009E-17, -1.000000000000000000 ) ) ;
#221 = CC_DESIGN_PERSON_AND_ORGANIZATION_ASSIGNMENT ( #33, #144, ( #200 ) ) ;
#222 = CIRCLE ( 'NONE', #153, 2.093999999999991868 ) ;
#223 = VERTEX_POINT ( 'NONE', #219 ) ;
#224 = ORIENTED_EDGE ( 'NONE', *, *, #30, .T. ) ;
#225 = LOCAL_TIME ( 11, 2, 37.00000000000000000, #121 ) ;
#226 = ORIENTED_EDGE ( 'NONE', *, *, #198, .T. ) ;
#227 = ADVANCED_FACE ( 'NONE', ( #79 ), #65, .T. ) ;
#228 = ORIENTED_EDGE ( 'NONE', *, *, #198, .F. ) ;
#229 = ADVANCED_BREP_SHAPE_REPRESENTATION ( '321322', ( #183, #109, #189 ), #113 ) ;
#230 = DIRECTION ( 'NONE',  ( -3.491481338843133355E-15, 9.031770143711729009E-17, -1.000000000000000000 ) ) ;
#231 = PLANE ( 'NONE',  #50 ) ;
#232 = PRODUCT_DEFINITION ( 'UNKNOWN', '', #111, #166 ) ;
#233 = ORIENTED_EDGE ( 'NONE', *, *, #108, .T. ) ;
#234 = DIRECTION ( 'NONE',  ( -2.943159418356818774E-30, 1.000000000000000000, -8.284257287377334233E-16 ) ) ;
#235 = ORIENTED_EDGE ( 'NONE', *, *, #89, .F. ) ;
#236 = APPROVAL_DATE_TIME ( #59, #115 ) ;
#237 = CARTESIAN_POINT ( 'NONE',  ( 0.0000000000000000000, 0.0000000000000000000, 0.0000000000000000000 ) ) ;
#238 = APPROVAL_PERSON_ORGANIZATION ( #178, #98, #72 ) ;
#239 = DIRECTION ( 'NONE',  ( -3.491481338843133355E-15, 9.031770143711729009E-17, -1.000000000000000000 ) ) ;
#240 = CARTESIAN_POINT ( 'NONE',  ( 0.0000000000000000000, 0.0000000000000000000, 0.0000000000000000000 ) ) ;
#241 = APPROVAL_PERSON_ORGANIZATION ( #16, #115, #86 ) ;
#242 = CARTESIAN_POINT ( 'NONE',  ( 3.015120951997744111E-30, 4.002793725538778603E-31, 8.635649626575904160E-16 ) ) ;
#243 = VERTEX_POINT ( 'NONE', #195 ) ;
ENDSEC;
END-ISO-10303-21;
