ISO-10303-21;
HEADER;
FILE_DESCRIPTION (( 'STEP AP203' ),
    '1' );
FILE_NAME ('321321.step',
    '2021-11-26T10:02:36',
    ( '' ),
    ( '' ),
    'SwSTEP 2.0',
    'SolidWorks 2019',
    '' );
FILE_SCHEMA (( 'CONFIG_CONTROL_DESIGN' ));
ENDSEC;

DATA;
#1 = ADVANCED_FACE ( 'NONE', ( #212 ), #134, .T. ) ;
#2 = CARTESIAN_POINT ( 'NONE',  ( 1.396592535537252948E-15, 2.088999999999998636, 0.3999999999999999112 ) ) ;
#3 = LOCAL_TIME ( 11, 2, 36.00000000000000000, #169 ) ;
#4 = CARTESIAN_POINT ( 'NONE',  ( 4.209842246092337187E-30, 7.824425949869144498E-31, 1.205746741148908968E-15 ) ) ;
#5 = FACE_BOUND ( 'NONE', #162, .T. ) ;
#6 = DIRECTION ( 'NONE',  ( -2.265719347090834910E-30, 1.000000000000000000, -6.489278123541560614E-16 ) ) ;
#7 = CIRCLE ( 'NONE', #160, 1.999999999999995337 ) ;
#8 = DIRECTION ( 'NONE',  ( 3.491481338843133355E-15, 6.489278123541561600E-16, 1.000000000000000000 ) ) ;
#9 = APPROVAL ( #88, 'UNSPECIFIED' ) ;
#10 = FACE_OUTER_BOUND ( 'NONE', #41, .T. ) ;
#11 = ORIENTED_EDGE ( 'NONE', *, *, #230, .F. ) ;
#12 = ORIENTED_EDGE ( 'NONE', *, *, #44, .T. ) ;
#13 = DIRECTION ( 'NONE',  ( -3.491481338843133355E-15, 9.031770143711729009E-17, -1.000000000000000000 ) ) ;
#14 = EDGE_LOOP ( 'NONE', ( #101 ) ) ;
#15 = DIRECTION ( 'NONE',  ( 0.0000000000000000000, 1.000000000000000000, 0.0000000000000000000 ) ) ;
#16 = AXIS2_PLACEMENT_3D ( 'NONE', #26, #231, #24 ) ;
#17 = PERSON_AND_ORGANIZATION ( #32, #72 ) ;
#18 = CALENDAR_DATE ( 2021, 26, 11 ) ;
#19 = APPROVAL_DATE_TIME ( #185, #69 ) ;
#20 = PRODUCT ( '321321', '321321', '', ( #64 ) ) ;
#21 = DATE_TIME_ROLE ( 'classification_date' ) ;
#22 = AXIS2_PLACEMENT_3D ( 'NONE', #85, #94, #6 ) ;
#23 = DIRECTION ( 'NONE',  ( -2.304846750104401053E-30, 1.000000000000000000, -6.487566853072674560E-16 ) ) ;
#24 = DIRECTION ( 'NONE',  ( -2.950203840133645806E-30, 1.000000000000000000, -8.304085571933058502E-16 ) ) ;
#25 = AXIS2_PLACEMENT_3D ( 'NONE', #242, #240, #220 ) ;
#26 = CARTESIAN_POINT ( 'NONE',  ( 4.831409194609847202E-14, 8.979672222119770845E-15, 13.83770590683060853 ) ) ;
#27 = COORDINATED_UNIVERSAL_TIME_OFFSET ( 1, 0, .AHEAD. ) ;
#28 = CARTESIAN_POINT ( 'NONE',  ( 2.779219145719134403E-13, 1.999999999999988010, 79.60000000000000853 ) ) ;
#29 = CC_DESIGN_APPROVAL ( #98, ( #145 ) ) ;
#30 = EDGE_CURVE ( 'NONE', #59, #59, #56, .T. ) ;
#31 = APPROVAL_DATE_TIME ( #74, #9 ) ;
#32 = PERSON ( 'UNSPECIFIED', 'UNSPECIFIED', 'UNSPECIFIED', ('UNSPECIFIED'), ('UNSPECIFIED'), ('UNSPECIFIED') ) ;
#33 = MANIFOLD_SOLID_BREP ( 'Corps-Déplacer/Copier1[1]', #42 ) ;
#34 = LOCAL_TIME ( 11, 2, 36.00000000000000000, #55 ) ;
#35 = EDGE_CURVE ( 'NONE', #175, #175, #137, .T. ) ;
#36 = PERSON_AND_ORGANIZATION_ROLE ( 'creator' ) ;
#37 = VERTEX_POINT ( 'NONE', #28 ) ;
#38 =( GEOMETRIC_REPRESENTATION_CONTEXT ( 3 ) GLOBAL_UNCERTAINTY_ASSIGNED_CONTEXT ( ( #196 ) ) GLOBAL_UNIT_ASSIGNED_CONTEXT ( ( #77, #116, #141 ) ) REPRESENTATION_CONTEXT ( 'NONE', 'WORKASPACE' ) );
#39 = CARTESIAN_POINT ( 'NONE',  ( 4.885231259955592332E-14, 1.999999999999988010, 13.99185842870425667 ) ) ;
#40 = AXIS2_PLACEMENT_3D ( 'NONE', #65, #163, #219 ) ;
#41 = EDGE_LOOP ( 'NONE', ( #43 ) ) ;
#42 = CLOSED_SHELL ( 'NONE', ( #1, #96, #130, #191, #215 ) ) ;
#43 = ORIENTED_EDGE ( 'NONE', *, *, #93, .F. ) ;
#44 = EDGE_CURVE ( 'NONE', #206, #206, #201, .T. ) ;
#45 = APPLICATION_PROTOCOL_DEFINITION ( 'international standard', 'config_control_design', 1994, #124 ) ;
#46 = DIRECTION ( 'NONE',  ( -3.491481338843133355E-15, 9.031770143711729009E-17, -1.000000000000000000 ) ) ;
#47 = EDGE_CURVE ( 'NONE', #78, #78, #49, .T. ) ;
#48 = APPROVAL_ROLE ( '' ) ;
#49 = CIRCLE ( 'NONE', #95, 1.858059892324149143 ) ;
#50 = CALENDAR_DATE ( 2021, 26, 11 ) ;
#51 = ADVANCED_FACE ( 'NONE', ( #70, #100 ), #99, .T. ) ;
#52 = FACE_BOUND ( 'NONE', #157, .T. ) ;
#53 = DIRECTION ( 'NONE',  ( -3.491481338843133355E-15, -6.489278123541561600E-16, -1.000000000000000000 ) ) ;
#54 = CALENDAR_DATE ( 2021, 26, 11 ) ;
#55 = COORDINATED_UNIVERSAL_TIME_OFFSET ( 1, 0, .AHEAD. ) ;
#56 = CIRCLE ( 'NONE', #90, 1.599999999999994982 ) ;
#57 = DIRECTION ( 'NONE',  ( 3.153425691349006731E-31, 1.000000000000000000, 9.031770143711729009E-17 ) ) ;
#58 = FACE_OUTER_BOUND ( 'NONE', #122, .T. ) ;
#59 = VERTEX_POINT ( 'NONE', #228 ) ;
#60 = ADVANCED_FACE ( 'NONE', ( #226 ), #202, .T. ) ;
#61 = EDGE_LOOP ( 'NONE', ( #104 ) ) ;
#62 = FACE_OUTER_BOUND ( 'NONE', #61, .T. ) ;
#63 = EDGE_LOOP ( 'NONE', ( #194 ) ) ;
#64 = MECHANICAL_CONTEXT ( 'NONE', #87, 'mechanical' ) ;
#65 = CARTESIAN_POINT ( 'NONE',  ( 4.831409194609845940E-14, 8.979672222119769267E-15, 13.83770590683060675 ) ) ;
#66 = EDGE_LOOP ( 'NONE', ( #11 ) ) ;
#67 = CALENDAR_DATE ( 2021, 26, 11 ) ;
#68 = PERSON_AND_ORGANIZATION_ROLE ( 'design_owner' ) ;
#69 = APPROVAL ( #188, 'UNSPECIFIED' ) ;
#70 = FACE_OUTER_BOUND ( 'NONE', #125, .T. ) ;
#71 = PERSON_AND_ORGANIZATION ( #32, #72 ) ;
#72 = ORGANIZATION ( 'UNSPECIFIED', 'UNSPECIFIED', '' ) ;
#73 = SECURITY_CLASSIFICATION ( '', '', #135 ) ;
#74 = DATE_AND_TIME ( #92, #186 ) ;
#75 = APPROVAL_DATE_TIME ( #170, #98 ) ;
#76 = VERTEX_POINT ( 'NONE', #142 ) ;
#77 =( LENGTH_UNIT ( ) NAMED_UNIT ( * ) SI_UNIT ( .MILLI., .METRE. ) );
#78 = VERTEX_POINT ( 'NONE', #209 ) ;
#79 = CONICAL_SURFACE ( 'NONE', #192, 2.088999999999999524, 0.5235987755982902669 ) ;
#80 = EDGE_LOOP ( 'NONE', ( #182 ) ) ;
#81 = LOCAL_TIME ( 11, 2, 36.00000000000000000, #27 ) ;
#82 = DIRECTION ( 'NONE',  ( -2.265719347090834910E-30, 1.000000000000000000, -6.489278123541561600E-16 ) ) ;
#83 = CYLINDRICAL_SURFACE ( 'NONE', #120, 1.999999999999992228 ) ;
#84 = DIRECTION ( 'NONE',  ( 1.000000000000000000, 0.0000000000000000000, 0.0000000000000000000 ) ) ;
#85 = CARTESIAN_POINT ( 'NONE',  ( 0.0000000000000000000, 0.0000000000000000000, 0.0000000000000000000 ) ) ;
#86 = AXIS2_PLACEMENT_3D ( 'NONE', #166, #224, #23 ) ;
#87 = APPLICATION_CONTEXT ( 'configuration controlled 3d designs of mechanical parts and assemblies' ) ;
#88 = APPROVAL_STATUS ( 'not_yet_approved' ) ;
#89 = CARTESIAN_POINT ( 'NONE',  ( 4.831409194609845940E-14, -1.249789790667760875E-15, 13.83770590683060675 ) ) ;
#90 = AXIS2_PLACEMENT_3D ( 'NONE', #133, #129, #198 ) ;
#91 = APPROVAL_PERSON_ORGANIZATION ( #199, #69, #109 ) ;
#92 = CALENDAR_DATE ( 2021, 26, 11 ) ;
#93 = EDGE_CURVE ( 'NONE', #229, #229, #179, .T. ) ;
#94 = DIRECTION ( 'NONE',  ( -3.491481338843133355E-15, -6.489278123541561600E-16, -1.000000000000000000 ) ) ;
#95 = AXIS2_PLACEMENT_3D ( 'NONE', #107, #126, #82 ) ;
#96 = ADVANCED_FACE ( 'NONE', ( #103, #159 ), #117, .T. ) ;
#97 = DIRECTION ( 'NONE',  ( 0.0000000000000000000, 1.000000000000000000, 0.0000000000000000000 ) ) ;
#98 = APPROVAL ( #151, 'UNSPECIFIED' ) ;
#99 = CYLINDRICAL_SURFACE ( 'NONE', #22, 2.088999999999993751 ) ;
#100 = FACE_OUTER_BOUND ( 'NONE', #14, .T. ) ;
#101 = ORIENTED_EDGE ( 'NONE', *, *, #35, .F. ) ;
#102 = AXIS2_PLACEMENT_3D ( 'NONE', #4, #8, #119 ) ;
#103 = FACE_BOUND ( 'NONE', #233, .T. ) ;
#104 = ORIENTED_EDGE ( 'NONE', *, *, #123, .T. ) ;
#105 = EDGE_LOOP ( 'NONE', ( #147 ) ) ;
#106 = DIRECTION ( 'NONE',  ( -3.491481338843133355E-15, 9.031770143711729009E-17, -1.000000000000000000 ) ) ;
#107 = CARTESIAN_POINT ( 'NONE',  ( 4.209842246092337187E-30, 7.824425949869144498E-31, 1.205746741148908968E-15 ) ) ;
#108 = AXIS2_PLACEMENT_3D ( 'NONE', #183, #217, #84 ) ;
#109 = APPROVAL_ROLE ( '' ) ;
#110 = CC_DESIGN_PERSON_AND_ORGANIZATION_ASSIGNMENT ( #189, #150, ( #145 ) ) ;
#111 = DIRECTION ( 'NONE',  ( 0.0000000000000000000, 1.000000000000000000, 0.0000000000000000000 ) ) ;
#112 = COORDINATED_UNIVERSAL_TIME_OFFSET ( 1, 0, .AHEAD. ) ;
#113 = AXIS2_PLACEMENT_3D ( 'NONE', #158, #234, #207 ) ;
#114 = DATE_TIME_ROLE ( 'creation_date' ) ;
#115 = CC_DESIGN_PERSON_AND_ORGANIZATION_ASSIGNMENT ( #218, #210, ( #73 ) ) ;
#116 =( NAMED_UNIT ( * ) PLANE_ANGLE_UNIT ( ) SI_UNIT ( $, .RADIAN. ) );
#117 = CONICAL_SURFACE ( 'NONE', #132, 1.999999999999995337, 0.7853981633974516097 ) ;
#118 = MANIFOLD_SOLID_BREP ( 'Corps-Déplacer/Copier1[2]', #165 ) ;
#119 = DIRECTION ( 'NONE',  ( 2.265719347090835260E-30, -1.000000000000000000, 6.489278123541561600E-16 ) ) ;
#120 = AXIS2_PLACEMENT_3D ( 'NONE', #146, #232, #121 ) ;
#121 = DIRECTION ( 'NONE',  ( 3.153425691349006731E-31, 1.000000000000000000, 9.031770143711727777E-17 ) ) ;
#122 = EDGE_LOOP ( 'NONE', ( #214 ) ) ;
#123 = EDGE_CURVE ( 'NONE', #37, #37, #7, .T. ) ;
#124 = APPLICATION_CONTEXT ( 'configuration controlled 3d designs of mechanical parts and assemblies' ) ;
#125 = EDGE_LOOP ( 'NONE', ( #193 ) ) ;
#126 = DIRECTION ( 'NONE',  ( -3.491481338843133355E-15, -6.489278123541561600E-16, -1.000000000000000000 ) ) ;
#127 = DIRECTION ( 'NONE',  ( 0.0000000000000000000, 1.000000000000000000, 0.0000000000000000000 ) ) ;
#128 = CARTESIAN_POINT ( 'NONE',  ( 2.779219145719134403E-13, -7.189289034394536528E-15, 79.60000000000000853 ) ) ;
#129 = DIRECTION ( 'NONE',  ( -3.491481338843133355E-15, 9.031770143711729009E-17, -1.000000000000000000 ) ) ;
#130 = ADVANCED_FACE ( 'NONE', ( #62, #10 ), #83, .T. ) ;
#131 = APPLICATION_PROTOCOL_DEFINITION ( 'international standard', 'config_control_design', 1994, #87 ) ;
#132 = AXIS2_PLACEMENT_3D ( 'NONE', #128, #106, #127 ) ;
#133 = CARTESIAN_POINT ( 'NONE',  ( 2.793185071074506684E-13, -7.225416114969383207E-15, 80.00000000000000000 ) ) ;
#134 = PLANE ( 'NONE',  #25 ) ;
#135 = SECURITY_CLASSIFICATION_LEVEL ( 'unclassified' ) ;
#136 = PERSON_AND_ORGANIZATION ( #32, #72 ) ;
#137 = CIRCLE ( 'NONE', #86, 2.088999999999998192 ) ;
#138 = CC_DESIGN_SECURITY_CLASSIFICATION ( #73, ( #145 ) ) ;
#139 = CC_DESIGN_PERSON_AND_ORGANIZATION_ASSIGNMENT ( #223, #171, ( #143 ) ) ;
#140 = PRODUCT_RELATED_PRODUCT_CATEGORY ( 'detail', '', ( #20 ) ) ;
#141 =( NAMED_UNIT ( * ) SI_UNIT ( $, .STERADIAN. ) SOLID_ANGLE_UNIT ( ) );
#142 = CARTESIAN_POINT ( 'NONE',  ( 4.831409194609846571E-14, 2.088999999999998192, 13.83770590683060675 ) ) ;
#143 = PRODUCT_DEFINITION ( 'UNKNOWN', '', #145, #176 ) ;
#144 = ORIENTED_EDGE ( 'NONE', *, *, #47, .F. ) ;
#145 = PRODUCT_DEFINITION_FORMATION_WITH_SPECIFIED_SOURCE ( 'ANY', '', #20, .NOT_KNOWN. ) ;
#146 = CARTESIAN_POINT ( 'NONE',  ( 0.0000000000000000000, 0.0000000000000000000, 0.0000000000000000000 ) ) ;
#147 = ORIENTED_EDGE ( 'NONE', *, *, #123, .F. ) ;
#148 = EDGE_LOOP ( 'NONE', ( #12 ) ) ;
#149 = AXIS2_PLACEMENT_3D ( 'NONE', #174, #154, #57 ) ;
#150 = PERSON_AND_ORGANIZATION_ROLE ( 'design_supplier' ) ;
#151 = APPROVAL_STATUS ( 'not_yet_approved' ) ;
#152 = AXIS2_PLACEMENT_3D ( 'NONE', #221, #53, #203 ) ;
#153 = PLANE ( 'NONE',  #149 ) ;
#154 = DIRECTION ( 'NONE',  ( -3.491481338843133355E-15, 9.031770143711729009E-17, -1.000000000000000000 ) ) ;
#155 = CC_DESIGN_PERSON_AND_ORGANIZATION_ASSIGNMENT ( #205, #36, ( #145 ) ) ;
#156 = ADVANCED_FACE ( 'NONE', ( #178 ), #235, .T. ) ;
#157 = EDGE_LOOP ( 'NONE', ( #236 ) ) ;
#158 = CARTESIAN_POINT ( 'NONE',  ( 4.831409194609845940E-14, -1.249789790667760875E-15, 13.83770590683060675 ) ) ;
#159 = FACE_OUTER_BOUND ( 'NONE', #105, .T. ) ;
#160 = AXIS2_PLACEMENT_3D ( 'NONE', #213, #13, #15 ) ;
#161 = CC_DESIGN_APPROVAL ( #69, ( #73 ) ) ;
#162 = EDGE_LOOP ( 'NONE', ( #144 ) ) ;
#163 = DIRECTION ( 'NONE',  ( 3.491481338843133355E-15, 6.489278123541561600E-16, 1.000000000000000000 ) ) ;
#164 = EDGE_LOOP ( 'NONE', ( #216 ) ) ;
#165 = CLOSED_SHELL ( 'NONE', ( #156, #51, #237, #60 ) ) ;
#166 = CARTESIAN_POINT ( 'NONE',  ( 1.396592535537257681E-15, 2.595711249416632825E-16, 0.4000000000000012434 ) ) ;
#167 = ADVANCED_BREP_SHAPE_REPRESENTATION ( '321321', ( #33, #118, #108 ), #38 ) ;
#168 = SHAPE_DEFINITION_REPRESENTATION ( #225, #167 ) ;
#169 = COORDINATED_UNIVERSAL_TIME_OFFSET ( 1, 0, .AHEAD. ) ;
#170 = DATE_AND_TIME ( #50, #34 ) ;
#171 = PERSON_AND_ORGANIZATION_ROLE ( 'creator' ) ;
#172 = APPROVAL_ROLE ( '' ) ;
#173 = FACE_OUTER_BOUND ( 'NONE', #148, .T. ) ;
#174 = CARTESIAN_POINT ( 'NONE',  ( 4.831409194609845308E-14, 2.088999999999998192, 13.83770590683060497 ) ) ;
#175 = VERTEX_POINT ( 'NONE', #2 ) ;
#176 = DESIGN_CONTEXT ( 'detailed design', #124, 'design' ) ;
#177 = CC_DESIGN_DATE_AND_TIME_ASSIGNMENT ( #222, #21, ( #73 ) ) ;
#178 = FACE_OUTER_BOUND ( 'NONE', #66, .T. ) ;
#179 = CIRCLE ( 'NONE', #195, 1.999999999999989120 ) ;
#180 = ORIENTED_EDGE ( 'NONE', *, *, #30, .T. ) ;
#181 = CC_DESIGN_PERSON_AND_ORGANIZATION_ASSIGNMENT ( #71, #68, ( #20 ) ) ;
#182 = ORIENTED_EDGE ( 'NONE', *, *, #44, .F. ) ;
#183 = CARTESIAN_POINT ( 'NONE',  ( 0.0000000000000000000, 0.0000000000000000000, 0.0000000000000000000 ) ) ;
#184 = CONICAL_SURFACE ( 'NONE', #102, 1.858059892324149143, 0.5235987755982970393 ) ;
#185 = DATE_AND_TIME ( #18, #241 ) ;
#186 = LOCAL_TIME ( 11, 2, 36.00000000000000000, #200 ) ;
#187 = APPROVAL_PERSON_ORGANIZATION ( #136, #98, #172 ) ;
#188 = APPROVAL_STATUS ( 'not_yet_approved' ) ;
#189 = PERSON_AND_ORGANIZATION ( #32, #72 ) ;
#190 = CIRCLE ( 'NONE', #16, 2.088999999999989310 ) ;
#191 = ADVANCED_FACE ( 'NONE', ( #52, #238 ), #79, .T. ) ;
#192 = AXIS2_PLACEMENT_3D ( 'NONE', #89, #239, #97 ) ;
#193 = ORIENTED_EDGE ( 'NONE', *, *, #230, .T. ) ;
#194 = ORIENTED_EDGE ( 'NONE', *, *, #47, .T. ) ;
#195 = AXIS2_PLACEMENT_3D ( 'NONE', #243, #46, #111 ) ;
#196 = UNCERTAINTY_MEASURE_WITH_UNIT (LENGTH_MEASURE( 1.000000000000000082E-05 ), #77, 'distance_accuracy_value', 'NONE');
#197 = CC_DESIGN_DATE_AND_TIME_ASSIGNMENT ( #204, #114, ( #143 ) ) ;
#198 = DIRECTION ( 'NONE',  ( 0.0000000000000000000, 1.000000000000000000, 0.0000000000000000000 ) ) ;
#199 = PERSON_AND_ORGANIZATION ( #32, #72 ) ;
#200 = COORDINATED_UNIVERSAL_TIME_OFFSET ( 1, 0, .AHEAD. ) ;
#201 = CIRCLE ( 'NONE', #113, 2.088999999999999524 ) ;
#202 = PLANE ( 'NONE',  #152 ) ;
#203 = DIRECTION ( 'NONE',  ( -2.265719347090834910E-30, 1.000000000000000000, -6.489278123541561600E-16 ) ) ;
#204 = DATE_AND_TIME ( #54, #3 ) ;
#205 = PERSON_AND_ORGANIZATION ( #32, #72 ) ;
#206 = VERTEX_POINT ( 'NONE', #227 ) ;
#207 = DIRECTION ( 'NONE',  ( 0.0000000000000000000, 1.000000000000000000, 0.0000000000000000000 ) ) ;
#208 = CC_DESIGN_APPROVAL ( #9, ( #143 ) ) ;
#209 = CARTESIAN_POINT ( 'NONE',  ( -6.842277657836020854E-46, 1.858059892324149143, 0.0000000000000000000 ) ) ;
#210 = PERSON_AND_ORGANIZATION_ROLE ( 'classification_officer' ) ;
#211 = APPROVAL_PERSON_ORGANIZATION ( #17, #9, #48 ) ;
#212 = FACE_OUTER_BOUND ( 'NONE', #164, .T. ) ;
#213 = CARTESIAN_POINT ( 'NONE',  ( 2.779219145719134403E-13, -7.189289034394536528E-15, 79.60000000000000853 ) ) ;
#214 = ORIENTED_EDGE ( 'NONE', *, *, #35, .T. ) ;
#215 = ADVANCED_FACE ( 'NONE', ( #173 ), #153, .T. ) ;
#216 = ORIENTED_EDGE ( 'NONE', *, *, #30, .F. ) ;
#217 = DIRECTION ( 'NONE',  ( 0.0000000000000000000, 0.0000000000000000000, 1.000000000000000000 ) ) ;
#218 = PERSON_AND_ORGANIZATION ( #32, #72 ) ;
#219 = DIRECTION ( 'NONE',  ( 2.265719347090834910E-30, -1.000000000000000000, 6.489278123541561600E-16 ) ) ;
#220 = DIRECTION ( 'NONE',  ( -3.153425691349006731E-31, -1.000000000000000000, -9.031770143711729009E-17 ) ) ;
#221 = CARTESIAN_POINT ( 'NONE',  ( -2.104921123046168593E-30, 1.858059892324149143, -6.028733705744544841E-16 ) ) ;
#222 = DATE_AND_TIME ( #67, #81 ) ;
#223 = PERSON_AND_ORGANIZATION ( #32, #72 ) ;
#224 = DIRECTION ( 'NONE',  ( -3.491481338843133355E-15, -6.489278123541561600E-16, -1.000000000000000000 ) ) ;
#225 = PRODUCT_DEFINITION_SHAPE ( 'NONE', 'NONE',  #143 ) ;
#226 = FACE_OUTER_BOUND ( 'NONE', #63, .T. ) ;
#227 = CARTESIAN_POINT ( 'NONE',  ( 4.831409194609845940E-14, 2.088999999999998192, 13.83770590683060675 ) ) ;
#228 = CARTESIAN_POINT ( 'NONE',  ( 2.793185071074506684E-13, 1.599999999999987876, 80.00000000000000000 ) ) ;
#229 = VERTEX_POINT ( 'NONE', #39 ) ;
#230 = EDGE_CURVE ( 'NONE', #76, #76, #190, .T. ) ;
#231 = DIRECTION ( 'NONE',  ( -3.491481338843133355E-15, -6.489278123541561600E-16, -1.000000000000000000 ) ) ;
#232 = DIRECTION ( 'NONE',  ( -3.491481338843133355E-15, 9.031770143711729009E-17, -1.000000000000000000 ) ) ;
#233 = EDGE_LOOP ( 'NONE', ( #180 ) ) ;
#234 = DIRECTION ( 'NONE',  ( -3.491481338843133355E-15, 9.031770143711729009E-17, -1.000000000000000000 ) ) ;
#235 = PLANE ( 'NONE',  #40 ) ;
#236 = ORIENTED_EDGE ( 'NONE', *, *, #93, .T. ) ;
#237 = ADVANCED_FACE ( 'NONE', ( #58, #5 ), #184, .T. ) ;
#238 = FACE_OUTER_BOUND ( 'NONE', #80, .T. ) ;
#239 = DIRECTION ( 'NONE',  ( -3.491481338843133355E-15, 9.031770143711729009E-17, -1.000000000000000000 ) ) ;
#240 = DIRECTION ( 'NONE',  ( 3.491481338843133355E-15, -9.031770143711729009E-17, 1.000000000000000000 ) ) ;
#241 = LOCAL_TIME ( 11, 2, 36.00000000000000000, #112 ) ;
#242 = CARTESIAN_POINT ( 'NONE',  ( 2.793185071074506684E-13, -7.225416114969383207E-15, 80.00000000000000000 ) ) ;
#243 = CARTESIAN_POINT ( 'NONE',  ( 4.885231259955592332E-14, -1.263712492114124077E-15, 13.99185842870425667 ) ) ;
ENDSEC;
END-ISO-10303-21;
