ISO-10303-21;
HEADER;
FILE_DESCRIPTION (( 'STEP AP203' ),
    '1' );
FILE_NAME ('321320.step',
    '2021-11-26T10:02:36',
    ( '' ),
    ( '' ),
    'SwSTEP 2.0',
    'SolidWorks 2019',
    '' );
FILE_SCHEMA (( 'CONFIG_CONTROL_DESIGN' ));
ENDSEC;

DATA;
#1 = CIRCLE ( 'NONE', #201, 1.599999999999994982 ) ;
#2 = AXIS2_PLACEMENT_3D ( 'NONE', #110, #5, #56 ) ;
#3 = ORIENTED_EDGE ( 'NONE', *, *, #131, .T. ) ;
#4 = PERSON_AND_ORGANIZATION ( #29, #101 ) ;
#5 = DIRECTION ( 'NONE',  ( 3.491481338843133355E-15, 4.626334966885704223E-16, 1.000000000000000000 ) ) ;
#6 = DATE_AND_TIME ( #224, #27 ) ;
#7 = ADVANCED_FACE ( 'NONE', ( #173 ), #229, .T. ) ;
#8 = FACE_BOUND ( 'NONE', #33, .T. ) ;
#9 = PERSON_AND_ORGANIZATION ( #29, #101 ) ;
#10 = ORIENTED_EDGE ( 'NONE', *, *, #209, .T. ) ;
#11 = COORDINATED_UNIVERSAL_TIME_OFFSET ( 1, 0, .AHEAD. ) ;
#12 = CARTESIAN_POINT ( 'NONE',  ( 2.793185071074506684E-13, -7.225416114969383207E-15, 80.00000000000000000 ) ) ;
#13 = DATE_AND_TIME ( #130, #153 ) ;
#14 = LOCAL_TIME ( 11, 2, 36.00000000000000000, #80 ) ;
#15 = VERTEX_POINT ( 'NONE', #65 ) ;
#16 = CALENDAR_DATE ( 2021, 26, 11 ) ;
#17 = EDGE_CURVE ( 'NONE', #19, #19, #157, .T. ) ;
#18 = DIRECTION ( 'NONE',  ( -3.491481338843133355E-15, 9.031770143711729009E-17, -1.000000000000000000 ) ) ;
#19 = VERTEX_POINT ( 'NONE', #237 ) ;
#20 = APPROVAL_DATE_TIME ( #63, #40 ) ;
#21 = ADVANCED_FACE ( 'NONE', ( #95, #162 ), #226, .T. ) ;
#22 = APPLICATION_PROTOCOL_DEFINITION ( 'international standard', 'config_control_design', 1994, #31 ) ;
#23 = AXIS2_PLACEMENT_3D ( 'NONE', #158, #53, #111 ) ;
#24 = FACE_OUTER_BOUND ( 'NONE', #185, .T. ) ;
#25 = PRODUCT ( '321320', '321320', '', ( #47 ) ) ;
#26 = ORIENTED_EDGE ( 'NONE', *, *, #17, .T. ) ;
#27 = LOCAL_TIME ( 11, 2, 36.00000000000000000, #61 ) ;
#28 = AXIS2_PLACEMENT_3D ( 'NONE', #74, #88, #51 ) ;
#29 = PERSON ( 'UNSPECIFIED', 'UNSPECIFIED', 'UNSPECIFIED', ('UNSPECIFIED'), ('UNSPECIFIED'), ('UNSPECIFIED') ) ;
#30 = EDGE_LOOP ( 'NONE', ( #123 ) ) ;
#31 = APPLICATION_CONTEXT ( 'configuration controlled 3d designs of mechanical parts and assemblies' ) ;
#32 = EDGE_LOOP ( 'NONE', ( #202 ) ) ;
#33 = EDGE_LOOP ( 'NONE', ( #70 ) ) ;
#34 = DATE_AND_TIME ( #113, #225 ) ;
#35 = CARTESIAN_POINT ( 'NONE',  ( 2.779219145719134403E-13, -7.189289034394536528E-15, 79.60000000000000853 ) ) ;
#36 = PERSON_AND_ORGANIZATION_ROLE ( 'creator' ) ;
#37 = FACE_OUTER_BOUND ( 'NONE', #49, .T. ) ;
#38 =( NAMED_UNIT ( * ) SI_UNIT ( $, .STERADIAN. ) SOLID_ANGLE_UNIT ( ) );
#39 = PLANE ( 'NONE',  #72 ) ;
#40 = APPROVAL ( #235, 'UNSPECIFIED' ) ;
#41 = AXIS2_PLACEMENT_3D ( 'NONE', #231, #114, #176 ) ;
#42 = CARTESIAN_POINT ( 'NONE',  ( 0.0000000000000000000, 0.0000000000000000000, 0.0000000000000000000 ) ) ;
#43 = DATE_AND_TIME ( #16, #69 ) ;
#44 = ADVANCED_FACE ( 'NONE', ( #146 ), #172, .T. ) ;
#45 = ORIENTED_EDGE ( 'NONE', *, *, #66, .F. ) ;
#46 = CC_DESIGN_DATE_AND_TIME_ASSIGNMENT ( #13, #112, ( #170 ) ) ;
#47 = MECHANICAL_CONTEXT ( 'NONE', #31, 'mechanical' ) ;
#48 = MANIFOLD_SOLID_BREP ( 'Corps-Déplacer/Copier1[1]', #151 ) ;
#49 = EDGE_LOOP ( 'NONE', ( #183 ) ) ;
#50 = MANIFOLD_SOLID_BREP ( 'Corps-Déplacer/Copier1[2]', #210 ) ;
#51 = DIRECTION ( 'NONE',  ( -1.615276220411890000E-30, 1.000000000000000000, -4.626334966885704223E-16 ) ) ;
#52 = CIRCLE ( 'NONE', #28, 1.853059892324148805 ) ;
#53 = DIRECTION ( 'NONE',  ( -3.491481338843133355E-15, -4.626334966885704223E-16, -1.000000000000000000 ) ) ;
#54 = EDGE_CURVE ( 'NONE', #199, #199, #52, .T. ) ;
#55 = DIRECTION ( 'NONE',  ( 0.0000000000000000000, 1.000000000000000000, 0.0000000000000000000 ) ) ;
#56 = DIRECTION ( 'NONE',  ( 1.615276220411890000E-30, -1.000000000000000000, 4.626334966885704223E-16 ) ) ;
#57 = COORDINATED_UNIVERSAL_TIME_OFFSET ( 1, 0, .AHEAD. ) ;
#58 = CC_DESIGN_APPROVAL ( #236, ( #64 ) ) ;
#59 = DIRECTION ( 'NONE',  ( -1.571056096669051348E-30, 1.000000000000000000, -4.682255063517056064E-16 ) ) ;
#60 = EDGE_CURVE ( 'NONE', #135, #135, #242, .T. ) ;
#61 = COORDINATED_UNIVERSAL_TIME_OFFSET ( 1, 0, .AHEAD. ) ;
#62 = CARTESIAN_POINT ( 'NONE',  ( 0.0000000000000000000, 0.0000000000000000000, 0.0000000000000000000 ) ) ;
#63 = DATE_AND_TIME ( #165, #14 ) ;
#64 = PRODUCT_DEFINITION_FORMATION_WITH_SPECIFIED_SOURCE ( 'ANY', '', #25, .NOT_KNOWN. ) ;
#65 = CARTESIAN_POINT ( 'NONE',  ( 4.834432906146123444E-14, 2.083999999999998298, 13.84636616086845073 ) ) ;
#66 = EDGE_CURVE ( 'NONE', #115, #115, #214, .T. ) ;
#67 = DIRECTION ( 'NONE',  ( -3.491481338843133355E-15, -4.626334966885704223E-16, -1.000000000000000000 ) ) ;
#68 = ADVANCED_BREP_SHAPE_REPRESENTATION ( '321320', ( #48, #50, #180 ), #156 ) ;
#69 = LOCAL_TIME ( 11, 2, 36.00000000000000000, #197 ) ;
#70 = ORIENTED_EDGE ( 'NONE', *, *, #66, .T. ) ;
#71 = PERSON_AND_ORGANIZATION ( #29, #101 ) ;
#72 = AXIS2_PLACEMENT_3D ( 'NONE', #179, #78, #82 ) ;
#73 = EDGE_LOOP ( 'NONE', ( #163 ) ) ;
#74 = CARTESIAN_POINT ( 'NONE',  ( 2.993203579070214995E-30, 3.966099496739175053E-31, 8.572875775592667406E-16 ) ) ;
#75 = CC_DESIGN_PERSON_AND_ORGANIZATION_ASSIGNMENT ( #238, #100, ( #138 ) ) ;
#76 = CARTESIAN_POINT ( 'NONE',  ( 4.834432906146123444E-14, -1.250571964906320763E-15, 13.84636616086845073 ) ) ;
#77 = DIRECTION ( 'NONE',  ( 0.0000000000000000000, 1.000000000000000000, 0.0000000000000000000 ) ) ;
#78 = DIRECTION ( 'NONE',  ( 3.491481338843133355E-15, -9.031770143711729009E-17, 1.000000000000000000 ) ) ;
#79 = APPROVAL_ROLE ( '' ) ;
#80 = COORDINATED_UNIVERSAL_TIME_OFFSET ( 1, 0, .AHEAD. ) ;
#81 = DIRECTION ( 'NONE',  ( -1.615276220411890000E-30, 1.000000000000000000, -4.626334966885704223E-16 ) ) ;
#82 = DIRECTION ( 'NONE',  ( -3.153425691349006731E-31, -1.000000000000000000, -9.031770143711729009E-17 ) ) ;
#83 = DATE_TIME_ROLE ( 'classification_date' ) ;
#84 = ADVANCED_FACE ( 'NONE', ( #147 ), #129, .T. ) ;
#85 = EDGE_LOOP ( 'NONE', ( #105 ) ) ;
#86 = ADVANCED_FACE ( 'NONE', ( #8, #93 ), #243, .T. ) ;
#87 = CC_DESIGN_SECURITY_CLASSIFICATION ( #138, ( #64 ) ) ;
#88 = DIRECTION ( 'NONE',  ( -3.491481338843133355E-15, -4.626334966885704223E-16, -1.000000000000000000 ) ) ;
#89 = CC_DESIGN_PERSON_AND_ORGANIZATION_ASSIGNMENT ( #232, #36, ( #170 ) ) ;
#90 = DIRECTION ( 'NONE',  ( -3.491481338843133355E-15, -4.626334966885704223E-16, -1.000000000000000000 ) ) ;
#91 = AXIS2_PLACEMENT_3D ( 'NONE', #128, #126, #77 ) ;
#92 = PERSON_AND_ORGANIZATION_ROLE ( 'creator' ) ;
#93 = FACE_OUTER_BOUND ( 'NONE', #127, .T. ) ;
#94 = APPROVAL_STATUS ( 'not_yet_approved' ) ;
#95 = FACE_OUTER_BOUND ( 'NONE', #73, .T. ) ;
#96 = EDGE_CURVE ( 'NONE', #117, #117, #196, .T. ) ;
#97 = CARTESIAN_POINT ( 'NONE',  ( 4.834432906146123444E-14, -1.250571964906320763E-15, 13.84636616086845073 ) ) ;
#98 = APPROVAL_PERSON_ORGANIZATION ( #182, #40, #216 ) ;
#99 = CARTESIAN_POINT ( 'NONE',  ( 0.0000000000000000000, 0.0000000000000000000, 0.0000000000000000000 ) ) ;
#100 = PERSON_AND_ORGANIZATION_ROLE ( 'classification_officer' ) ;
#101 = ORGANIZATION ( 'UNSPECIFIED', 'UNSPECIFIED', '' ) ;
#102 = EDGE_LOOP ( 'NONE', ( #3 ) ) ;
#103 = DIRECTION ( 'NONE',  ( 1.000000000000000000, 0.0000000000000000000, 0.0000000000000000000 ) ) ;
#104 = APPROVAL_PERSON_ORGANIZATION ( #9, #236, #79 ) ;
#105 = ORIENTED_EDGE ( 'NONE', *, *, #96, .F. ) ;
#106 = ADVANCED_FACE ( 'NONE', ( #193, #37 ), #204, .T. ) ;
#107 = DIRECTION ( 'NONE',  ( -3.491481338843133355E-15, 9.031770143711729009E-17, -1.000000000000000000 ) ) ;
#108 = APPLICATION_PROTOCOL_DEFINITION ( 'international standard', 'config_control_design', 1994, #136 ) ;
#109 = UNCERTAINTY_MEASURE_WITH_UNIT (LENGTH_MEASURE( 1.000000000000000082E-05 ), #213, 'distance_accuracy_value', 'NONE');
#110 = CARTESIAN_POINT ( 'NONE',  ( 2.993203579070214995E-30, 3.966099496739175053E-31, 8.572875775592667406E-16 ) ) ;
#111 = DIRECTION ( 'NONE',  ( -1.615276220411890000E-30, 1.000000000000000000, -4.626334966885704223E-16 ) ) ;
#112 = DATE_TIME_ROLE ( 'creation_date' ) ;
#113 = CALENDAR_DATE ( 2021, 26, 11 ) ;
#114 = DIRECTION ( 'NONE',  ( -3.491481338843133355E-15, 9.031770143711729009E-17, -1.000000000000000000 ) ) ;
#115 = VERTEX_POINT ( 'NONE', #169 ) ;
#116 = APPROVAL_PERSON_ORGANIZATION ( #4, #140, #188 ) ;
#117 = VERTEX_POINT ( 'NONE', #150 ) ;
#118 = CC_DESIGN_PERSON_AND_ORGANIZATION_ASSIGNMENT ( #144, #92, ( #64 ) ) ;
#119 = CYLINDRICAL_SURFACE ( 'NONE', #125, 1.999999999999993561 ) ;
#120 = AXIS2_PLACEMENT_3D ( 'NONE', #35, #107, #223 ) ;
#121 = DIRECTION ( 'NONE',  ( 0.0000000000000000000, 0.0000000000000000000, 1.000000000000000000 ) ) ;
#122 = AXIS2_PLACEMENT_3D ( 'NONE', #76, #208, #55 ) ;
#123 = ORIENTED_EDGE ( 'NONE', *, *, #131, .F. ) ;
#124 = ORIENTED_EDGE ( 'NONE', *, *, #54, .F. ) ;
#125 = AXIS2_PLACEMENT_3D ( 'NONE', #62, #133, #195 ) ;
#126 = DIRECTION ( 'NONE',  ( -3.491481338843133355E-15, 9.031770143711729009E-17, -1.000000000000000000 ) ) ;
#127 = EDGE_LOOP ( 'NONE', ( #143 ) ) ;
#128 = CARTESIAN_POINT ( 'NONE',  ( 4.885231259955590439E-14, -1.263712492114123682E-15, 13.99185842870425134 ) ) ;
#129 = PLANE ( 'NONE',  #23 ) ;
#130 = CALENDAR_DATE ( 2021, 26, 11 ) ;
#131 = EDGE_CURVE ( 'NONE', #200, #200, #1, .T. ) ;
#132 = CYLINDRICAL_SURFACE ( 'NONE', #239, 2.083999999999995190 ) ;
#133 = DIRECTION ( 'NONE',  ( -3.491481338843133355E-15, 9.031770143711729009E-17, -1.000000000000000000 ) ) ;
#134 =( NAMED_UNIT ( * ) PLANE_ANGLE_UNIT ( ) SI_UNIT ( $, .RADIAN. ) );
#135 = VERTEX_POINT ( 'NONE', #166 ) ;
#136 = APPLICATION_CONTEXT ( 'configuration controlled 3d designs of mechanical parts and assemblies' ) ;
#137 = FACE_OUTER_BOUND ( 'NONE', #142, .T. ) ;
#138 = SECURITY_CLASSIFICATION ( '', '', #168 ) ;
#139 = ORIENTED_EDGE ( 'NONE', *, *, #96, .T. ) ;
#140 = APPROVAL ( #190, 'UNSPECIFIED' ) ;
#141 = PERSON_AND_ORGANIZATION_ROLE ( 'design_owner' ) ;
#142 = EDGE_LOOP ( 'NONE', ( #26 ) ) ;
#143 = ORIENTED_EDGE ( 'NONE', *, *, #209, .F. ) ;
#144 = PERSON_AND_ORGANIZATION ( #29, #101 ) ;
#145 = CARTESIAN_POINT ( 'NONE',  ( 4.834432906146124075E-14, 6.405792793432868445E-15, 13.84636616086845251 ) ) ;
#146 = FACE_OUTER_BOUND ( 'NONE', #171, .T. ) ;
#147 = FACE_OUTER_BOUND ( 'NONE', #211, .T. ) ;
#148 = AXIS2_PLACEMENT_3D ( 'NONE', #189, #160, #192 ) ;
#149 = FACE_OUTER_BOUND ( 'NONE', #32, .T. ) ;
#150 = CARTESIAN_POINT ( 'NONE',  ( 4.834432906146123444E-14, 2.083999999999998298, 13.84636616086845073 ) ) ;
#151 = CLOSED_SHELL ( 'NONE', ( #222, #106, #155, #86, #44 ) ) ;
#152 = CC_DESIGN_PERSON_AND_ORGANIZATION_ASSIGNMENT ( #207, #159, ( #64 ) ) ;
#153 = LOCAL_TIME ( 11, 2, 36.00000000000000000, #11 ) ;
#154 = DIRECTION ( 'NONE',  ( -3.491481338843133355E-15, 9.031770143711729009E-17, -1.000000000000000000 ) ) ;
#155 = ADVANCED_FACE ( 'NONE', ( #137, #215 ), #119, .T. ) ;
#156 =( GEOMETRIC_REPRESENTATION_CONTEXT ( 3 ) GLOBAL_UNCERTAINTY_ASSIGNED_CONTEXT ( ( #109 ) ) GLOBAL_UNIT_ASSIGNED_CONTEXT ( ( #213, #134, #38 ) ) REPRESENTATION_CONTEXT ( 'NONE', 'WORKASPACE' ) );
#157 = CIRCLE ( 'NONE', #120, 1.999999999999995337 ) ;
#158 = CARTESIAN_POINT ( 'NONE',  ( -1.496601789535107497E-30, 1.853059892324148805, -4.286437887796333703E-16 ) ) ;
#159 = PERSON_AND_ORGANIZATION_ROLE ( 'design_supplier' ) ;
#160 = DIRECTION ( 'NONE',  ( -3.491481338843133355E-15, -4.626334966885704223E-16, -1.000000000000000000 ) ) ;
#161 = APPROVAL_DATE_TIME ( #6, #236 ) ;
#162 = FACE_BOUND ( 'NONE', #221, .T. ) ;
#163 = ORIENTED_EDGE ( 'NONE', *, *, #60, .T. ) ;
#164 = DIRECTION ( 'NONE',  ( 0.0000000000000000000, 1.000000000000000000, 0.0000000000000000000 ) ) ;
#165 = CALENDAR_DATE ( 2021, 26, 11 ) ;
#166 = CARTESIAN_POINT ( 'NONE',  ( 1.396592535537253145E-15, 2.083999999999998742, 0.3999999999999999112 ) ) ;
#167 = AXIS2_PLACEMENT_3D ( 'NONE', #97, #241, #234 ) ;
#168 = SECURITY_CLASSIFICATION_LEVEL ( 'unclassified' ) ;
#169 = CARTESIAN_POINT ( 'NONE',  ( 4.885231259955590439E-14, 1.999999999999990452, 13.99185842870425134 ) ) ;
#170 = PRODUCT_DEFINITION ( 'UNKNOWN', '', #64, #198 ) ;
#171 = EDGE_LOOP ( 'NONE', ( #10 ) ) ;
#172 = PLANE ( 'NONE',  #217 ) ;
#173 = FACE_OUTER_BOUND ( 'NONE', #85, .T. ) ;
#174 = CC_DESIGN_DATE_AND_TIME_ASSIGNMENT ( #43, #83, ( #138 ) ) ;
#175 = CARTESIAN_POINT ( 'NONE',  ( 4.834432906146124075E-14, 2.083999999999998298, 13.84636616086845251 ) ) ;
#176 = DIRECTION ( 'NONE',  ( 0.0000000000000000000, 1.000000000000000000, 0.0000000000000000000 ) ) ;
#177 = CARTESIAN_POINT ( 'NONE',  ( 2.793185071074506684E-13, 1.599999999999987876, 80.00000000000000000 ) ) ;
#178 = AXIS2_PLACEMENT_3D ( 'NONE', #145, #203, #228 ) ;
#179 = CARTESIAN_POINT ( 'NONE',  ( 2.793185071074506684E-13, -7.225416114969383207E-15, 80.00000000000000000 ) ) ;
#180 = AXIS2_PLACEMENT_3D ( 'NONE', #42, #121, #103 ) ;
#181 = FACE_OUTER_BOUND ( 'NONE', #30, .T. ) ;
#182 = PERSON_AND_ORGANIZATION ( #29, #101 ) ;
#183 = ORIENTED_EDGE ( 'NONE', *, *, #17, .F. ) ;
#184 = CC_DESIGN_APPROVAL ( #40, ( #138 ) ) ;
#185 = EDGE_LOOP ( 'NONE', ( #139 ) ) ;
#186 = CIRCLE ( 'NONE', #167, 2.083999999999999631 ) ;
#187 = EDGE_LOOP ( 'NONE', ( #45 ) ) ;
#188 = APPROVAL_ROLE ( '' ) ;
#189 = CARTESIAN_POINT ( 'NONE',  ( 4.834432906146124075E-14, 6.405792793432869234E-15, 13.84636616086845251 ) ) ;
#190 = APPROVAL_STATUS ( 'not_yet_approved' ) ;
#191 = AXIS2_PLACEMENT_3D ( 'NONE', #206, #90, #59 ) ;
#192 = DIRECTION ( 'NONE',  ( -2.957282064318224174E-30, 1.000000000000000000, -8.324009001808128484E-16 ) ) ;
#193 = FACE_BOUND ( 'NONE', #102, .T. ) ;
#194 = CARTESIAN_POINT ( 'NONE',  ( 0.0000000000000000000, 1.853059892324148805, 0.0000000000000000000 ) ) ;
#195 = DIRECTION ( 'NONE',  ( 3.153425691349006731E-31, 1.000000000000000000, 9.031770143711729009E-17 ) ) ;
#196 = CIRCLE ( 'NONE', #148, 2.083999999999991637 ) ;
#197 = COORDINATED_UNIVERSAL_TIME_OFFSET ( 1, 0, .AHEAD. ) ;
#198 = DESIGN_CONTEXT ( 'detailed design', #136, 'design' ) ;
#199 = VERTEX_POINT ( 'NONE', #194 ) ;
#200 = VERTEX_POINT ( 'NONE', #177 ) ;
#201 = AXIS2_PLACEMENT_3D ( 'NONE', #12, #18, #164 ) ;
#202 = ORIENTED_EDGE ( 'NONE', *, *, #60, .F. ) ;
#203 = DIRECTION ( 'NONE',  ( 3.491481338843133355E-15, 4.626334966885704223E-16, 1.000000000000000000 ) ) ;
#204 = CONICAL_SURFACE ( 'NONE', #41, 1.999999999999995337, 0.7853981633974516097 ) ;
#205 = CC_DESIGN_PERSON_AND_ORGANIZATION_ASSIGNMENT ( #71, #141, ( #25 ) ) ;
#206 = CARTESIAN_POINT ( 'NONE',  ( 1.396592535537256300E-15, 1.850533986754285831E-16, 0.4000000000000009104 ) ) ;
#207 = PERSON_AND_ORGANIZATION ( #29, #101 ) ;
#208 = DIRECTION ( 'NONE',  ( -3.491481338843133355E-15, 9.031770143711729009E-17, -1.000000000000000000 ) ) ;
#209 = EDGE_CURVE ( 'NONE', #15, #15, #186, .T. ) ;
#210 = CLOSED_SHELL ( 'NONE', ( #7, #233, #21, #84 ) ) ;
#211 = EDGE_LOOP ( 'NONE', ( #220 ) ) ;
#212 = APPROVAL_DATE_TIME ( #34, #140 ) ;
#213 =( LENGTH_UNIT ( ) NAMED_UNIT ( * ) SI_UNIT ( .MILLI., .METRE. ) );
#214 = CIRCLE ( 'NONE', #91, 1.999999999999991784 ) ;
#215 = FACE_OUTER_BOUND ( 'NONE', #187, .T. ) ;
#216 = APPROVAL_ROLE ( '' ) ;
#217 = AXIS2_PLACEMENT_3D ( 'NONE', #175, #154, #227 ) ;
#218 = PRODUCT_DEFINITION_SHAPE ( 'NONE', 'NONE',  #170 ) ;
#219 = PRODUCT_RELATED_PRODUCT_CATEGORY ( 'detail', '', ( #25 ) ) ;
#220 = ORIENTED_EDGE ( 'NONE', *, *, #54, .T. ) ;
#221 = EDGE_LOOP ( 'NONE', ( #124 ) ) ;
#222 = ADVANCED_FACE ( 'NONE', ( #181 ), #39, .T. ) ;
#223 = DIRECTION ( 'NONE',  ( 0.0000000000000000000, 1.000000000000000000, 0.0000000000000000000 ) ) ;
#224 = CALENDAR_DATE ( 2021, 26, 11 ) ;
#225 = LOCAL_TIME ( 11, 2, 36.00000000000000000, #57 ) ;
#226 = CONICAL_SURFACE ( 'NONE', #2, 1.853059892324148805, 0.5235987755982979275 ) ;
#227 = DIRECTION ( 'NONE',  ( 3.153425691349006731E-31, 1.000000000000000000, 9.031770143711729009E-17 ) ) ;
#228 = DIRECTION ( 'NONE',  ( 1.615276220411890000E-30, -1.000000000000000000, 4.626334966885704223E-16 ) ) ;
#229 = PLANE ( 'NONE',  #178 ) ;
#230 = CC_DESIGN_APPROVAL ( #140, ( #170 ) ) ;
#231 = CARTESIAN_POINT ( 'NONE',  ( 2.779219145719134403E-13, -7.189289034394536528E-15, 79.60000000000000853 ) ) ;
#232 = PERSON_AND_ORGANIZATION ( #29, #101 ) ;
#233 = ADVANCED_FACE ( 'NONE', ( #24, #149 ), #132, .T. ) ;
#234 = DIRECTION ( 'NONE',  ( 0.0000000000000000000, 1.000000000000000000, 0.0000000000000000000 ) ) ;
#235 = APPROVAL_STATUS ( 'not_yet_approved' ) ;
#236 = APPROVAL ( #94, 'UNSPECIFIED' ) ;
#237 = CARTESIAN_POINT ( 'NONE',  ( 2.779219145719134403E-13, 1.999999999999988010, 79.60000000000000853 ) ) ;
#238 = PERSON_AND_ORGANIZATION ( #29, #101 ) ;
#239 = AXIS2_PLACEMENT_3D ( 'NONE', #99, #67, #81 ) ;
#240 = SHAPE_DEFINITION_REPRESENTATION ( #218, #68 ) ;
#241 = DIRECTION ( 'NONE',  ( -3.491481338843133355E-15, 9.031770143711729009E-17, -1.000000000000000000 ) ) ;
#242 = CIRCLE ( 'NONE', #191, 2.083999999999998742 ) ;
#243 = CONICAL_SURFACE ( 'NONE', #122, 2.083999999999999631, 0.5235987755982930425 ) ;
ENDSEC;
END-ISO-10303-21;
