ISO-10303-21;
HEADER;
FILE_DESCRIPTION (( 'STEP AP203' ),
    '1' );
FILE_NAME ('321319.step',
    '2021-11-26T10:02:35',
    ( '' ),
    ( '' ),
    'SwSTEP 2.0',
    'SolidWorks 2019',
    '' );
FILE_SCHEMA (( 'CONFIG_CONTROL_DESIGN' ));
ENDSEC;

DATA;
#1 = EDGE_CURVE ( 'NONE', #50, #50, #90, .T. ) ;
#2 = CONICAL_SURFACE ( 'NONE', #6, 1.999999999999995337, 0.7853981633974516097 ) ;
#3 = ORIENTED_EDGE ( 'NONE', *, *, #131, .F. ) ;
#4 = SHAPE_DEFINITION_REPRESENTATION ( #203, #187 ) ;
#5 = DIRECTION ( 'NONE',  ( 3.153425691349006731E-31, 1.000000000000000000, 9.031770143711729009E-17 ) ) ;
#6 = AXIS2_PLACEMENT_3D ( 'NONE', #103, #65, #40 ) ;
#7 = CALENDAR_DATE ( 2021, 26, 11 ) ;
#8 =( LENGTH_UNIT ( ) NAMED_UNIT ( * ) SI_UNIT ( .MILLI., .METRE. ) );
#9 = EDGE_LOOP ( 'NONE', ( #234 ) ) ;
#10 = DATE_AND_TIME ( #34, #238 ) ;
#11 = FACE_OUTER_BOUND ( 'NONE', #14, .T. ) ;
#12 = ORIENTED_EDGE ( 'NONE', *, *, #131, .T. ) ;
#13 = ADVANCED_FACE ( 'NONE', ( #67, #207 ), #134, .T. ) ;
#14 = EDGE_LOOP ( 'NONE', ( #3 ) ) ;
#15 = DIRECTION ( 'NONE',  ( 0.0000000000000000000, 1.000000000000000000, 0.0000000000000000000 ) ) ;
#16 = APPROVAL ( #177, 'UNSPECIFIED' ) ;
#17 = LOCAL_TIME ( 11, 2, 35.00000000000000000, #119 ) ;
#18 = DIRECTION ( 'NONE',  ( -3.491481338843133355E-15, -4.621912258547454820E-16, -1.000000000000000000 ) ) ;
#19 = APPROVAL_STATUS ( 'not_yet_approved' ) ;
#20 = CC_DESIGN_PERSON_AND_ORGANIZATION_ASSIGNMENT ( #35, #72, ( #101 ) ) ;
#21 = PERSON_AND_ORGANIZATION ( #80, #161 ) ;
#22 = PERSON_AND_ORGANIZATION ( #80, #161 ) ;
#23 = CIRCLE ( 'NONE', #66, 2.078999999999997961 ) ;
#24 = ORIENTED_EDGE ( 'NONE', *, *, #226, .F. ) ;
#25 = ADVANCED_FACE ( 'NONE', ( #178, #11 ), #2, .T. ) ;
#26 = EDGE_LOOP ( 'NONE', ( #81 ) ) ;
#27 = MANIFOLD_SOLID_BREP ( 'Corps-Déplacer/Copier1[1]', #104 ) ;
#28 = DIRECTION ( 'NONE',  ( -2.964394334795180056E-30, 1.000000000000000000, -8.344028263476738916E-16 ) ) ;
#29 = DIRECTION ( 'NONE',  ( -3.491481338843133355E-15, 9.031770143711729009E-17, -1.000000000000000000 ) ) ;
#30 = FACE_OUTER_BOUND ( 'NONE', #181, .T. ) ;
#31 = AXIS2_PLACEMENT_3D ( 'NONE', #124, #142, #211 ) ;
#32 = AXIS2_PLACEMENT_3D ( 'NONE', #236, #213, #128 ) ;
#33 = AXIS2_PLACEMENT_3D ( 'NONE', #223, #184, #183 ) ;
#34 = CALENDAR_DATE ( 2021, 26, 11 ) ;
#35 = PERSON_AND_ORGANIZATION ( #80, #161 ) ;
#36 = EDGE_CURVE ( 'NONE', #47, #47, #143, .T. ) ;
#37 = APPROVAL_ROLE ( '' ) ;
#38 = CIRCLE ( 'NONE', #239, 1.848059892324148246 ) ;
#39 = PRODUCT_RELATED_PRODUCT_CATEGORY ( 'detail', '', ( #174 ) ) ;
#40 = DIRECTION ( 'NONE',  ( 0.0000000000000000000, 1.000000000000000000, 0.0000000000000000000 ) ) ;
#41 = APPROVAL_ROLE ( '' ) ;
#42 = CARTESIAN_POINT ( 'NONE',  ( 4.837456617682401579E-14, 6.403671642955422301E-15, 13.85502641490629649 ) ) ;
#43 = ORIENTED_EDGE ( 'NONE', *, *, #1, .T. ) ;
#44 = UNCERTAINTY_MEASURE_WITH_UNIT (LENGTH_MEASURE( 1.000000000000000082E-05 ), #8, 'distance_accuracy_value', 'NONE');
#45 = ORIENTED_EDGE ( 'NONE', *, *, #129, .T. ) ;
#46 = CARTESIAN_POINT ( 'NONE',  ( 2.793185071074506684E-13, -7.225416114969383207E-15, 80.00000000000000000 ) ) ;
#47 = VERTEX_POINT ( 'NONE', #109 ) ;
#48 = APPROVAL_PERSON_ORGANIZATION ( #216, #237, #41 ) ;
#49 = APPLICATION_CONTEXT ( 'configuration controlled 3d designs of mechanical parts and assemblies' ) ;
#50 = VERTEX_POINT ( 'NONE', #201 ) ;
#51 = AXIS2_PLACEMENT_3D ( 'NONE', #88, #170, #130 ) ;
#52 = AXIS2_PLACEMENT_3D ( 'NONE', #83, #89, #5 ) ;
#53 = ADVANCED_FACE ( 'NONE', ( #196 ), #75, .T. ) ;
#54 = ORIENTED_EDGE ( 'NONE', *, *, #129, .F. ) ;
#55 = AXIS2_PLACEMENT_3D ( 'NONE', #228, #29, #242 ) ;
#56 = CALENDAR_DATE ( 2021, 26, 11 ) ;
#57 = ORIENTED_EDGE ( 'NONE', *, *, #226, .T. ) ;
#58 = PERSON_AND_ORGANIZATION_ROLE ( 'creator' ) ;
#59 = SECURITY_CLASSIFICATION_LEVEL ( 'unclassified' ) ;
#60 = DIRECTION ( 'NONE',  ( -1.613732040048876058E-30, 1.000000000000000000, -4.621912258547455806E-16 ) ) ;
#61 = CARTESIAN_POINT ( 'NONE',  ( 2.779219145719134403E-13, 1.999999999999988010, 79.60000000000000853 ) ) ;
#62 = CARTESIAN_POINT ( 'NONE',  ( 4.837456617682400948E-14, -1.251354139144880256E-15, 13.85502641490629472 ) ) ;
#63 = EDGE_LOOP ( 'NONE', ( #24 ) ) ;
#64 = VERTEX_POINT ( 'NONE', #222 ) ;
#65 = DIRECTION ( 'NONE',  ( -3.491481338843133355E-15, 9.031770143711729009E-17, -1.000000000000000000 ) ) ;
#66 = AXIS2_PLACEMENT_3D ( 'NONE', #144, #127, #126 ) ;
#67 = FACE_OUTER_BOUND ( 'NONE', #9, .T. ) ;
#68 = DIRECTION ( 'NONE',  ( -1.613732040048876058E-30, 1.000000000000000000, -4.621912258547454820E-16 ) ) ;
#69 = APPROVAL_PERSON_ORGANIZATION ( #219, #16, #98 ) ;
#70 = APPLICATION_PROTOCOL_DEFINITION ( 'international standard', 'config_control_design', 1994, #49 ) ;
#71 = ADVANCED_FACE ( 'NONE', ( #185, #30 ), #153, .T. ) ;
#72 = PERSON_AND_ORGANIZATION_ROLE ( 'creator' ) ;
#73 = DATE_TIME_ROLE ( 'classification_date' ) ;
#74 = CC_DESIGN_APPROVAL ( #16, ( #235 ) ) ;
#75 = PLANE ( 'NONE',  #233 ) ;
#76 = DIRECTION ( 'NONE',  ( -3.153425691349006731E-31, -1.000000000000000000, -9.031770143711729009E-17 ) ) ;
#77 = CYLINDRICAL_SURFACE ( 'NONE', #33, 1.999999999999993561 ) ;
#78 = DIRECTION ( 'NONE',  ( -3.491481338843133355E-15, -4.621912258547455806E-16, -1.000000000000000000 ) ) ;
#79 = EDGE_LOOP ( 'NONE', ( #45 ) ) ;
#80 = PERSON ( 'UNSPECIFIED', 'UNSPECIFIED', 'UNSPECIFIED', ('UNSPECIFIED'), ('UNSPECIFIED'), ('UNSPECIFIED') ) ;
#81 = ORIENTED_EDGE ( 'NONE', *, *, #1, .F. ) ;
#82 = ADVANCED_FACE ( 'NONE', ( #156, #209 ), #77, .T. ) ;
#83 = CARTESIAN_POINT ( 'NONE',  ( 4.837456617682401579E-14, 2.078999999999998405, 13.85502641490629649 ) ) ;
#84 = DESIGN_CONTEXT ( 'detailed design', #49, 'design' ) ;
#85 = AXIS2_PLACEMENT_3D ( 'NONE', #42, #141, #210 ) ;
#86 = EDGE_CURVE ( 'NONE', #243, #243, #38, .T. ) ;
#87 = PERSON_AND_ORGANIZATION ( #80, #161 ) ;
#88 = CARTESIAN_POINT ( 'NONE',  ( 0.0000000000000000000, 0.0000000000000000000, 0.0000000000000000000 ) ) ;
#89 = DIRECTION ( 'NONE',  ( -3.491481338843133355E-15, 9.031770143711729009E-17, -1.000000000000000000 ) ) ;
#90 = CIRCLE ( 'NONE', #95, 2.078999999999991743 ) ;
#91 = CC_DESIGN_APPROVAL ( #179, ( #240 ) ) ;
#92 = DATE_AND_TIME ( #115, #154 ) ;
#93 = APPROVAL_DATE_TIME ( #189, #237 ) ;
#94 = CC_DESIGN_DATE_AND_TIME_ASSIGNMENT ( #10, #137, ( #101 ) ) ;
#95 = AXIS2_PLACEMENT_3D ( 'NONE', #229, #195, #28 ) ;
#96 = APPROVAL_STATUS ( 'not_yet_approved' ) ;
#97 = ORIENTED_EDGE ( 'NONE', *, *, #136, .F. ) ;
#98 = APPROVAL_ROLE ( '' ) ;
#99 = PLANE ( 'NONE',  #52 ) ;
#100 = DIRECTION ( 'NONE',  ( 3.491481338843133355E-15, -9.031770143711729009E-17, 1.000000000000000000 ) ) ;
#101 = PRODUCT_DEFINITION ( 'UNKNOWN', '', #235, #84 ) ;
#102 = FACE_OUTER_BOUND ( 'NONE', #79, .T. ) ;
#103 = CARTESIAN_POINT ( 'NONE',  ( 2.779219145719134403E-13, -7.189289034394536528E-15, 79.60000000000000853 ) ) ;
#104 = CLOSED_SHELL ( 'NONE', ( #53, #25, #82, #71, #217 ) ) ;
#105 = ORIENTED_EDGE ( 'NONE', *, *, #36, .F. ) ;
#106 = DIRECTION ( 'NONE',  ( -3.491481338843133355E-15, 9.031770143711729009E-17, -1.000000000000000000 ) ) ;
#107 = VERTEX_POINT ( 'NONE', #163 ) ;
#108 = CARTESIAN_POINT ( 'NONE',  ( 0.0000000000000000000, 0.0000000000000000000, 0.0000000000000000000 ) ) ;
#109 = CARTESIAN_POINT ( 'NONE',  ( 4.885231259955590439E-14, 1.999999999999990452, 13.99185842870425134 ) ) ;
#110 = MANIFOLD_SOLID_BREP ( 'Corps-Déplacer/Copier1[2]', #168 ) ;
#111 = CIRCLE ( 'NONE', #55, 2.078999999999999737 ) ;
#112 = PERSON_AND_ORGANIZATION_ROLE ( 'design_owner' ) ;
#113 = AXIS2_PLACEMENT_3D ( 'NONE', #62, #106, #15 ) ;
#114 = PERSON_AND_ORGANIZATION ( #80, #161 ) ;
#115 = CALENDAR_DATE ( 2021, 26, 11 ) ;
#116 = CARTESIAN_POINT ( 'NONE',  ( 2.793185071074506684E-13, 1.599999999999987876, 80.00000000000000000 ) ) ;
#117 = CARTESIAN_POINT ( 'NONE',  ( 2.982273460172754011E-30, 3.947839019091052792E-31, 8.541570670862872181E-16 ) ) ;
#118 = ADVANCED_FACE ( 'NONE', ( #139 ), #140, .T. ) ;
#119 = COORDINATED_UNIVERSAL_TIME_OFFSET ( 1, 0, .AHEAD. ) ;
#120 = ORIENTED_EDGE ( 'NONE', *, *, #36, .T. ) ;
#121 = CYLINDRICAL_SURFACE ( 'NONE', #190, 2.078999999999994852 ) ;
#122 = EDGE_LOOP ( 'NONE', ( #97 ) ) ;
#123 = AXIS2_PLACEMENT_3D ( 'NONE', #117, #164, #231 ) ;
#124 = CARTESIAN_POINT ( 'NONE',  ( 4.885231259955590439E-14, -1.263712492114123682E-15, 13.99185842870425134 ) ) ;
#125 =( NAMED_UNIT ( * ) SI_UNIT ( $, .STERADIAN. ) SOLID_ANGLE_UNIT ( ) );
#126 = DIRECTION ( 'NONE',  ( -1.574834490359934686E-30, 1.000000000000000000, -4.693515898205651404E-16 ) ) ;
#127 = DIRECTION ( 'NONE',  ( -3.491481338843133355E-15, -4.621912258547455806E-16, -1.000000000000000000 ) ) ;
#128 = DIRECTION ( 'NONE',  ( 0.0000000000000000000, 1.000000000000000000, 0.0000000000000000000 ) ) ;
#129 = EDGE_CURVE ( 'NONE', #64, #64, #111, .T. ) ;
#130 = DIRECTION ( 'NONE',  ( 1.000000000000000000, 0.0000000000000000000, 0.0000000000000000000 ) ) ;
#131 = EDGE_CURVE ( 'NONE', #182, #182, #227, .T. ) ;
#132 = LOCAL_TIME ( 11, 2, 35.00000000000000000, #150 ) ;
#133 = EDGE_LOOP ( 'NONE', ( #12 ) ) ;
#134 = CONICAL_SURFACE ( 'NONE', #123, 1.848059892324148246, 0.5235987755982979275 ) ;
#135 = CC_DESIGN_APPROVAL ( #237, ( #101 ) ) ;
#136 = EDGE_CURVE ( 'NONE', #107, #107, #23, .T. ) ;
#137 = DATE_TIME_ROLE ( 'creation_date' ) ;
#138 = DATE_AND_TIME ( #7, #132 ) ;
#139 = FACE_OUTER_BOUND ( 'NONE', #26, .T. ) ;
#140 = PLANE ( 'NONE',  #85 ) ;
#141 = DIRECTION ( 'NONE',  ( 3.491481338843133355E-15, 4.621912258547454820E-16, 1.000000000000000000 ) ) ;
#142 = DIRECTION ( 'NONE',  ( -3.491481338843133355E-15, 9.031770143711729009E-17, -1.000000000000000000 ) ) ;
#143 = CIRCLE ( 'NONE', #31, 1.999999999999991784 ) ;
#144 = CARTESIAN_POINT ( 'NONE',  ( 1.396592535537256300E-15, 1.848764903418986513E-16, 0.4000000000000009104 ) ) ;
#145 = ORIENTED_EDGE ( 'NONE', *, *, #86, .T. ) ;
#146 = LOCAL_TIME ( 11, 2, 35.00000000000000000, #221 ) ;
#147 = CC_DESIGN_PERSON_AND_ORGANIZATION_ASSIGNMENT ( #21, #180, ( #240 ) ) ;
#148 = APPROVAL_PERSON_ORGANIZATION ( #22, #179, #37 ) ;
#149 = EDGE_LOOP ( 'NONE', ( #43 ) ) ;
#150 = COORDINATED_UNIVERSAL_TIME_OFFSET ( 1, 0, .AHEAD. ) ;
#151 = ORIENTED_EDGE ( 'NONE', *, *, #86, .F. ) ;
#152 = PERSON_AND_ORGANIZATION_ROLE ( 'design_supplier' ) ;
#153 = CONICAL_SURFACE ( 'NONE', #113, 2.078999999999999737, 0.5235987755982908221 ) ;
#154 = LOCAL_TIME ( 11, 2, 35.00000000000000000, #205 ) ;
#155 = CIRCLE ( 'NONE', #206, 1.599999999999994982 ) ;
#156 = FACE_OUTER_BOUND ( 'NONE', #133, .T. ) ;
#157 = DIRECTION ( 'NONE',  ( -1.613732040048876058E-30, 1.000000000000000000, -4.621912258547454820E-16 ) ) ;
#158 = PERSON_AND_ORGANIZATION ( #80, #161 ) ;
#159 = VERTEX_POINT ( 'NONE', #116 ) ;
#160 = CARTESIAN_POINT ( 'NONE',  ( 2.982273460172754011E-30, 3.947839019091052792E-31, 8.541570670862872181E-16 ) ) ;
#161 = ORGANIZATION ( 'UNSPECIFIED', 'UNSPECIFIED', '' ) ;
#162 = EDGE_LOOP ( 'NONE', ( #57 ) ) ;
#163 = CARTESIAN_POINT ( 'NONE',  ( 1.396592535537253145E-15, 2.078999999999997961, 0.3999999999999999112 ) ) ;
#164 = DIRECTION ( 'NONE',  ( 3.491481338843133355E-15, 4.621912258547455806E-16, 1.000000000000000000 ) ) ;
#165 = AXIS2_PLACEMENT_3D ( 'NONE', #215, #18, #157 ) ;
#166 = CC_DESIGN_SECURITY_CLASSIFICATION ( #240, ( #235 ) ) ;
#167 = FACE_OUTER_BOUND ( 'NONE', #171, .T. ) ;
#168 = CLOSED_SHELL ( 'NONE', ( #118, #198, #13, #173 ) ) ;
#169 = CC_DESIGN_PERSON_AND_ORGANIZATION_ASSIGNMENT ( #158, #58, ( #235 ) ) ;
#170 = DIRECTION ( 'NONE',  ( 0.0000000000000000000, 0.0000000000000000000, 1.000000000000000000 ) ) ;
#171 = EDGE_LOOP ( 'NONE', ( #145 ) ) ;
#172 = CALENDAR_DATE ( 2021, 26, 11 ) ;
#173 = ADVANCED_FACE ( 'NONE', ( #167 ), #197, .T. ) ;
#174 = PRODUCT ( '321319', '321319', '', ( #200 ) ) ;
#175 = COORDINATED_UNIVERSAL_TIME_OFFSET ( 1, 0, .AHEAD. ) ;
#176 = DATE_AND_TIME ( #172, #17 ) ;
#177 = APPROVAL_STATUS ( 'not_yet_approved' ) ;
#178 = FACE_BOUND ( 'NONE', #162, .T. ) ;
#179 = APPROVAL ( #96, 'UNSPECIFIED' ) ;
#180 = PERSON_AND_ORGANIZATION_ROLE ( 'classification_officer' ) ;
#181 = EDGE_LOOP ( 'NONE', ( #54 ) ) ;
#182 = VERTEX_POINT ( 'NONE', #61 ) ;
#183 = DIRECTION ( 'NONE',  ( 3.153425691349006731E-31, 1.000000000000000000, 9.031770143711729009E-17 ) ) ;
#184 = DIRECTION ( 'NONE',  ( -3.491481338843133355E-15, 9.031770143711729009E-17, -1.000000000000000000 ) ) ;
#185 = FACE_BOUND ( 'NONE', #220, .T. ) ;
#186 = APPLICATION_CONTEXT ( 'configuration controlled 3d designs of mechanical parts and assemblies' ) ;
#187 = ADVANCED_BREP_SHAPE_REPRESENTATION ( '321319', ( #27, #110, #51 ), #232 ) ;
#188 = CC_DESIGN_PERSON_AND_ORGANIZATION_ASSIGNMENT ( #87, #112, ( #174 ) ) ;
#189 = DATE_AND_TIME ( #56, #146 ) ;
#190 = AXIS2_PLACEMENT_3D ( 'NONE', #108, #78, #68 ) ;
#191 = CC_DESIGN_PERSON_AND_ORGANIZATION_ASSIGNMENT ( #114, #152, ( #235 ) ) ;
#192 = DIRECTION ( 'NONE',  ( -3.491481338843133355E-15, -4.621912258547455806E-16, -1.000000000000000000 ) ) ;
#193 = EDGE_LOOP ( 'NONE', ( #151 ) ) ;
#194 = EDGE_LOOP ( 'NONE', ( #105 ) ) ;
#195 = DIRECTION ( 'NONE',  ( -3.491481338843133355E-15, -4.621912258547455806E-16, -1.000000000000000000 ) ) ;
#196 = FACE_OUTER_BOUND ( 'NONE', #63, .T. ) ;
#197 = PLANE ( 'NONE',  #165 ) ;
#198 = ADVANCED_FACE ( 'NONE', ( #224, #202 ), #121, .T. ) ;
#199 = DIRECTION ( 'NONE',  ( -3.491481338843133355E-15, 9.031770143711729009E-17, -1.000000000000000000 ) ) ;
#200 = MECHANICAL_CONTEXT ( 'NONE', #186, 'mechanical' ) ;
#201 = CARTESIAN_POINT ( 'NONE',  ( 4.837456617682400948E-14, 2.078999999999998405, 13.85502641490629472 ) ) ;
#202 = FACE_OUTER_BOUND ( 'NONE', #122, .T. ) ;
#203 = PRODUCT_DEFINITION_SHAPE ( 'NONE', 'NONE',  #101 ) ;
#204 = APPROVAL_DATE_TIME ( #138, #16 ) ;
#205 = COORDINATED_UNIVERSAL_TIME_OFFSET ( 1, 0, .AHEAD. ) ;
#206 = AXIS2_PLACEMENT_3D ( 'NONE', #218, #199, #214 ) ;
#207 = FACE_BOUND ( 'NONE', #193, .T. ) ;
#208 =( NAMED_UNIT ( * ) PLANE_ANGLE_UNIT ( ) SI_UNIT ( $, .RADIAN. ) );
#209 = FACE_OUTER_BOUND ( 'NONE', #194, .T. ) ;
#210 = DIRECTION ( 'NONE',  ( 1.613732040048876058E-30, -1.000000000000000000, 4.621912258547454820E-16 ) ) ;
#211 = DIRECTION ( 'NONE',  ( 0.0000000000000000000, 1.000000000000000000, 0.0000000000000000000 ) ) ;
#212 = CC_DESIGN_DATE_AND_TIME_ASSIGNMENT ( #92, #73, ( #240 ) ) ;
#213 = DIRECTION ( 'NONE',  ( -3.491481338843133355E-15, 9.031770143711729009E-17, -1.000000000000000000 ) ) ;
#214 = DIRECTION ( 'NONE',  ( 0.0000000000000000000, 1.000000000000000000, 0.0000000000000000000 ) ) ;
#215 = CARTESIAN_POINT ( 'NONE',  ( -1.491136730086377005E-30, 1.848059892324148246, -4.270785335431436090E-16 ) ) ;
#216 = PERSON_AND_ORGANIZATION ( #80, #161 ) ;
#217 = ADVANCED_FACE ( 'NONE', ( #102 ), #99, .T. ) ;
#218 = CARTESIAN_POINT ( 'NONE',  ( 2.793185071074506684E-13, -7.225416114969383207E-15, 80.00000000000000000 ) ) ;
#219 = PERSON_AND_ORGANIZATION ( #80, #161 ) ;
#220 = EDGE_LOOP ( 'NONE', ( #120 ) ) ;
#221 = COORDINATED_UNIVERSAL_TIME_OFFSET ( 1, 0, .AHEAD. ) ;
#222 = CARTESIAN_POINT ( 'NONE',  ( 4.837456617682400948E-14, 2.078999999999998405, 13.85502641490629472 ) ) ;
#223 = CARTESIAN_POINT ( 'NONE',  ( 0.0000000000000000000, 0.0000000000000000000, 0.0000000000000000000 ) ) ;
#224 = FACE_OUTER_BOUND ( 'NONE', #149, .T. ) ;
#225 = APPROVAL_DATE_TIME ( #176, #179 ) ;
#226 = EDGE_CURVE ( 'NONE', #159, #159, #155, .T. ) ;
#227 = CIRCLE ( 'NONE', #32, 1.999999999999995337 ) ;
#228 = CARTESIAN_POINT ( 'NONE',  ( 4.837456617682400948E-14, -1.251354139144880256E-15, 13.85502641490629472 ) ) ;
#229 = CARTESIAN_POINT ( 'NONE',  ( 4.837456617682401579E-14, 6.403671642955422301E-15, 13.85502641490629649 ) ) ;
#230 = CARTESIAN_POINT ( 'NONE',  ( 3.421138828918010427E-46, 1.848059892324148246, 0.0000000000000000000 ) ) ;
#231 = DIRECTION ( 'NONE',  ( 1.613732040048875708E-30, -1.000000000000000000, 4.621912258547455806E-16 ) ) ;
#232 =( GEOMETRIC_REPRESENTATION_CONTEXT ( 3 ) GLOBAL_UNCERTAINTY_ASSIGNED_CONTEXT ( ( #44 ) ) GLOBAL_UNIT_ASSIGNED_CONTEXT ( ( #8, #208, #125 ) ) REPRESENTATION_CONTEXT ( 'NONE', 'WORKASPACE' ) );
#233 = AXIS2_PLACEMENT_3D ( 'NONE', #46, #100, #76 ) ;
#234 = ORIENTED_EDGE ( 'NONE', *, *, #136, .T. ) ;
#235 = PRODUCT_DEFINITION_FORMATION_WITH_SPECIFIED_SOURCE ( 'ANY', '', #174, .NOT_KNOWN. ) ;
#236 = CARTESIAN_POINT ( 'NONE',  ( 2.779219145719134403E-13, -7.189289034394536528E-15, 79.60000000000000853 ) ) ;
#237 = APPROVAL ( #19, 'UNSPECIFIED' ) ;
#238 = LOCAL_TIME ( 11, 2, 35.00000000000000000, #175 ) ;
#239 = AXIS2_PLACEMENT_3D ( 'NONE', #160, #192, #60 ) ;
#240 = SECURITY_CLASSIFICATION ( '', '', #59 ) ;
#241 = APPLICATION_PROTOCOL_DEFINITION ( 'international standard', 'config_control_design', 1994, #186 ) ;
#242 = DIRECTION ( 'NONE',  ( 0.0000000000000000000, 1.000000000000000000, 0.0000000000000000000 ) ) ;
#243 = VERTEX_POINT ( 'NONE', #230 ) ;
ENDSEC;
END-ISO-10303-21;
