ISO-10303-21;
HEADER;
FILE_DESCRIPTION (( 'STEP AP203' ),
    '1' );
FILE_NAME ('321318.step',
    '2021-11-26T10:02:34',
    ( '' ),
    ( '' ),
    'SwSTEP 2.0',
    'SolidWorks 2019',
    '' );
FILE_SCHEMA (( 'CONFIG_CONTROL_DESIGN' ));
ENDSEC;

DATA;
#1 = SECURITY_CLASSIFICATION_LEVEL ( 'unclassified' ) ;
#2 = EDGE_CURVE ( 'NONE', #107, #107, #144, .T. ) ;
#3 = PERSON_AND_ORGANIZATION ( #215, #9 ) ;
#4 = CONICAL_SURFACE ( 'NONE', #8, 1.999999999999995337, 0.7853981633974516097 ) ;
#5 = EDGE_LOOP ( 'NONE', ( #133 ) ) ;
#6 = DIRECTION ( 'NONE',  ( 3.491481338843133355E-15, 4.617495075691520883E-16, 1.000000000000000000 ) ) ;
#7 = DIRECTION ( 'NONE',  ( 1.612189788897700798E-30, -1.000000000000000000, 4.617495075691520883E-16 ) ) ;
#8 = AXIS2_PLACEMENT_3D ( 'NONE', #55, #115, #200 ) ;
#9 = ORGANIZATION ( 'UNSPECIFIED', 'UNSPECIFIED', '' ) ;
#10 = APPROVAL ( #95, 'UNSPECIFIED' ) ;
#11 = EDGE_LOOP ( 'NONE', ( #159 ) ) ;
#12 = VERTEX_POINT ( 'NONE', #214 ) ;
#13 = VERTEX_POINT ( 'NONE', #17 ) ;
#14 = CARTESIAN_POINT ( 'NONE',  ( 1.396592535537256300E-15, 1.846998030276612298E-16, 0.4000000000000009104 ) ) ;
#15 = LOCAL_TIME ( 11, 2, 34.00000000000000000, #121 ) ;
#16 = CARTESIAN_POINT ( 'NONE',  ( -1.485681169365944190E-30, 1.843059892324148796, -4.255159988505651129E-16 ) ) ;
#17 = CARTESIAN_POINT ( 'NONE',  ( 2.793185071074506684E-13, 1.599999999999987876, 80.00000000000000000 ) ) ;
#18 = ORIENTED_EDGE ( 'NONE', *, *, #193, .F. ) ;
#19 = DIRECTION ( 'NONE',  ( 3.153425691349006731E-31, 1.000000000000000000, 9.031770143711729009E-17 ) ) ;
#20 = APPLICATION_PROTOCOL_DEFINITION ( 'international standard', 'config_control_design', 1994, #204 ) ;
#21 = FACE_OUTER_BOUND ( 'NONE', #11, .T. ) ;
#22 = CC_DESIGN_APPROVAL ( #82, ( #141 ) ) ;
#23 = EDGE_LOOP ( 'NONE', ( #88 ) ) ;
#24 = DATE_AND_TIME ( #191, #216 ) ;
#25 = PERSON_AND_ORGANIZATION ( #215, #9 ) ;
#26 = APPROVAL_DATE_TIME ( #24, #186 ) ;
#27 = CALENDAR_DATE ( 2021, 26, 11 ) ;
#28 = EDGE_LOOP ( 'NONE', ( #59 ) ) ;
#29 = DIRECTION ( 'NONE',  ( -3.491481338843133355E-15, -4.617495075691520883E-16, -1.000000000000000000 ) ) ;
#30 = DIRECTION ( 'NONE',  ( 0.0000000000000000000, 1.000000000000000000, 0.0000000000000000000 ) ) ;
#31 = AXIS2_PLACEMENT_3D ( 'NONE', #239, #153, #182 ) ;
#32 = ORIENTED_EDGE ( 'NONE', *, *, #48, .F. ) ;
#33 = PLANE ( 'NONE',  #50 ) ;
#34 = CLOSED_SHELL ( 'NONE', ( #165, #75, #68, #135 ) ) ;
#35 = FACE_OUTER_BOUND ( 'NONE', #149, .T. ) ;
#36 = DIRECTION ( 'NONE',  ( -3.491481338843133355E-15, 9.031770143711729009E-17, -1.000000000000000000 ) ) ;
#37 = PLANE ( 'NONE',  #100 ) ;
#38 = CIRCLE ( 'NONE', #126, 2.073999999999998511 ) ;
#39 = DIRECTION ( 'NONE',  ( 0.0000000000000000000, 1.000000000000000000, 0.0000000000000000000 ) ) ;
#40 = ADVANCED_FACE ( 'NONE', ( #111, #225 ), #4, .T. ) ;
#41 =( LENGTH_UNIT ( ) NAMED_UNIT ( * ) SI_UNIT ( .MILLI., .METRE. ) );
#42 = PERSON_AND_ORGANIZATION ( #215, #9 ) ;
#43 = PERSON_AND_ORGANIZATION_ROLE ( 'design_owner' ) ;
#44 = DIRECTION ( 'NONE',  ( 3.153425691349006731E-31, 1.000000000000000000, 9.031770143711729009E-17 ) ) ;
#45 = AXIS2_PLACEMENT_3D ( 'NONE', #220, #112, #197 ) ;
#46 = CIRCLE ( 'NONE', #170, 2.073999999999991850 ) ;
#47 = DATE_AND_TIME ( #209, #93 ) ;
#48 = EDGE_CURVE ( 'NONE', #12, #12, #160, .T. ) ;
#49 = EDGE_LOOP ( 'NONE', ( #166 ) ) ;
#50 = AXIS2_PLACEMENT_3D ( 'NONE', #16, #223, #187 ) ;
#51 = CARTESIAN_POINT ( 'NONE',  ( 4.840480329218678452E-14, 2.073999999999998067, 13.86368666894414048 ) ) ;
#52 = AXIS2_PLACEMENT_3D ( 'NONE', #129, #6, #7 ) ;
#53 = DIRECTION ( 'NONE',  ( -3.153425691349006731E-31, -1.000000000000000000, -9.031770143711729009E-17 ) ) ;
#54 = CARTESIAN_POINT ( 'NONE',  ( 1.396592535537253145E-15, 2.073999999999998511, 0.3999999999999999112 ) ) ;
#55 = CARTESIAN_POINT ( 'NONE',  ( 2.779219145719134403E-13, -7.189289034394536528E-15, 79.60000000000000853 ) ) ;
#56 = DIRECTION ( 'NONE',  ( 0.0000000000000000000, 0.0000000000000000000, 1.000000000000000000 ) ) ;
#57 = UNCERTAINTY_MEASURE_WITH_UNIT (LENGTH_MEASURE( 1.000000000000000082E-05 ), #41, 'distance_accuracy_value', 'NONE');
#58 = SECURITY_CLASSIFICATION ( '', '', #1 ) ;
#59 = ORIENTED_EDGE ( 'NONE', *, *, #218, .T. ) ;
#60 = ADVANCED_FACE ( 'NONE', ( #35 ), #37, .T. ) ;
#61 = CARTESIAN_POINT ( 'NONE',  ( 2.971362338731888380E-30, 3.929636058640886189E-31, 8.510319977011302259E-16 ) ) ;
#62 = MECHANICAL_CONTEXT ( 'NONE', #204, 'mechanical' ) ;
#63 = CC_DESIGN_PERSON_AND_ORGANIZATION_ASSIGNMENT ( #42, #177, ( #141 ) ) ;
#64 = EDGE_CURVE ( 'NONE', #90, #90, #105, .T. ) ;
#65 = PLANE ( 'NONE',  #118 ) ;
#66 = AXIS2_PLACEMENT_3D ( 'NONE', #89, #162, #192 ) ;
#67 = COORDINATED_UNIVERSAL_TIME_OFFSET ( 1, 0, .AHEAD. ) ;
#68 = ADVANCED_FACE ( 'NONE', ( #183, #113 ), #161, .T. ) ;
#69 = COORDINATED_UNIVERSAL_TIME_OFFSET ( 1, 0, .AHEAD. ) ;
#70 = PLANE ( 'NONE',  #52 ) ;
#71 = PRODUCT_DEFINITION_SHAPE ( 'NONE', 'NONE',  #147 ) ;
#72 = CC_DESIGN_SECURITY_CLASSIFICATION ( #58, ( #141 ) ) ;
#73 = AXIS2_PLACEMENT_3D ( 'NONE', #61, #154, #168 ) ;
#74 = EDGE_LOOP ( 'NONE', ( #102 ) ) ;
#75 = ADVANCED_FACE ( 'NONE', ( #91, #94 ), #235, .T. ) ;
#76 = EDGE_LOOP ( 'NONE', ( #125 ) ) ;
#77 = ADVANCED_BREP_SHAPE_REPRESENTATION ( '321318', ( #190, #116, #157 ), #237 ) ;
#78 = EDGE_LOOP ( 'NONE', ( #18 ) ) ;
#79 = VERTEX_POINT ( 'NONE', #219 ) ;
#80 = DIRECTION ( 'NONE',  ( -3.491481338843133355E-15, 9.031770143711729009E-17, -1.000000000000000000 ) ) ;
#81 = FACE_OUTER_BOUND ( 'NONE', #194, .T. ) ;
#82 = APPROVAL ( #227, 'UNSPECIFIED' ) ;
#83 = FACE_OUTER_BOUND ( 'NONE', #49, .T. ) ;
#84 = APPROVAL_DATE_TIME ( #205, #10 ) ;
#85 = DATE_TIME_ROLE ( 'creation_date' ) ;
#86 = SHAPE_DEFINITION_REPRESENTATION ( #71, #77 ) ;
#87 = APPROVAL_STATUS ( 'not_yet_approved' ) ;
#88 = ORIENTED_EDGE ( 'NONE', *, *, #2, .T. ) ;
#89 = CARTESIAN_POINT ( 'NONE',  ( 2.971362338731888380E-30, 3.929636058640886189E-31, 8.510319977011302259E-16 ) ) ;
#90 = VERTEX_POINT ( 'NONE', #234 ) ;
#91 = FACE_OUTER_BOUND ( 'NONE', #127, .T. ) ;
#92 = DESIGN_CONTEXT ( 'detailed design', #178, 'design' ) ;
#93 = LOCAL_TIME ( 11, 2, 34.00000000000000000, #67 ) ;
#94 = FACE_OUTER_BOUND ( 'NONE', #124, .T. ) ;
#95 = APPROVAL_STATUS ( 'not_yet_approved' ) ;
#96 = FACE_OUTER_BOUND ( 'NONE', #74, .T. ) ;
#97 = CYLINDRICAL_SURFACE ( 'NONE', #233, 1.999999999999993561 ) ;
#98 = PERSON_AND_ORGANIZATION_ROLE ( 'creator' ) ;
#99 = ADVANCED_FACE ( 'NONE', ( #172, #185 ), #212, .T. ) ;
#100 = AXIS2_PLACEMENT_3D ( 'NONE', #136, #151, #19 ) ;
#101 = APPROVAL_PERSON_ORGANIZATION ( #155, #82, #176 ) ;
#102 = ORIENTED_EDGE ( 'NONE', *, *, #128, .F. ) ;
#103 = DIRECTION ( 'NONE',  ( -1.578631101956751859E-30, 1.000000000000000000, -4.704831028143465147E-16 ) ) ;
#104 = ADVANCED_FACE ( 'NONE', ( #202 ), #65, .T. ) ;
#105 = CIRCLE ( 'NONE', #45, 2.073999999999999400 ) ;
#106 = ORIENTED_EDGE ( 'NONE', *, *, #232, .T. ) ;
#107 = VERTEX_POINT ( 'NONE', #145 ) ;
#108 = CC_DESIGN_DATE_AND_TIME_ASSIGNMENT ( #207, #85, ( #147 ) ) ;
#109 = VERTEX_POINT ( 'NONE', #54 ) ;
#110 = ORIENTED_EDGE ( 'NONE', *, *, #64, .T. ) ;
#111 = FACE_BOUND ( 'NONE', #181, .T. ) ;
#112 = DIRECTION ( 'NONE',  ( -3.491481338843133355E-15, 9.031770143711729009E-17, -1.000000000000000000 ) ) ;
#113 = FACE_BOUND ( 'NONE', #78, .T. ) ;
#114 = CARTESIAN_POINT ( 'NONE',  ( 2.793185071074506684E-13, -7.225416114969383207E-15, 80.00000000000000000 ) ) ;
#115 = DIRECTION ( 'NONE',  ( -3.491481338843133355E-15, 9.031770143711729009E-17, -1.000000000000000000 ) ) ;
#116 = MANIFOLD_SOLID_BREP ( 'Corps-Déplacer/Copier1[2]', #34 ) ;
#117 = DATE_AND_TIME ( #158, #180 ) ;
#118 = AXIS2_PLACEMENT_3D ( 'NONE', #114, #169, #53 ) ;
#119 = APPROVAL_DATE_TIME ( #47, #82 ) ;
#120 = CC_DESIGN_PERSON_AND_ORGANIZATION_ASSIGNMENT ( #138, #122, ( #141 ) ) ;
#121 = COORDINATED_UNIVERSAL_TIME_OFFSET ( 1, 0, .AHEAD. ) ;
#122 = PERSON_AND_ORGANIZATION_ROLE ( 'design_supplier' ) ;
#123 = AXIS2_PLACEMENT_3D ( 'NONE', #173, #150, #221 ) ;
#124 = EDGE_LOOP ( 'NONE', ( #146 ) ) ;
#125 = ORIENTED_EDGE ( 'NONE', *, *, #64, .F. ) ;
#126 = AXIS2_PLACEMENT_3D ( 'NONE', #14, #29, #103 ) ;
#127 = EDGE_LOOP ( 'NONE', ( #210 ) ) ;
#128 = EDGE_CURVE ( 'NONE', #164, #164, #46, .T. ) ;
#129 = CARTESIAN_POINT ( 'NONE',  ( 4.840480329218677821E-14, 6.401550492477973791E-15, 13.86368666894413870 ) ) ;
#130 = DIRECTION ( 'NONE',  ( -3.491481338843133355E-15, -4.617495075691520883E-16, -1.000000000000000000 ) ) ;
#131 = CARTESIAN_POINT ( 'NONE',  ( 2.779219145719134403E-13, -7.189289034394536528E-15, 79.60000000000000853 ) ) ;
#132 =( NAMED_UNIT ( * ) SI_UNIT ( $, .STERADIAN. ) SOLID_ANGLE_UNIT ( ) );
#133 = ORIENTED_EDGE ( 'NONE', *, *, #232, .F. ) ;
#134 = DIRECTION ( 'NONE',  ( 1.000000000000000000, 0.0000000000000000000, 0.0000000000000000000 ) ) ;
#135 = ADVANCED_FACE ( 'NONE', ( #81 ), #33, .T. ) ;
#136 = CARTESIAN_POINT ( 'NONE',  ( 4.840480329218677821E-14, 2.073999999999998067, 13.86368666894413870 ) ) ;
#137 = CARTESIAN_POINT ( 'NONE',  ( 0.0000000000000000000, 0.0000000000000000000, 0.0000000000000000000 ) ) ;
#138 = PERSON_AND_ORGANIZATION ( #215, #9 ) ;
#139 = APPROVAL_ROLE ( '' ) ;
#140 = CARTESIAN_POINT ( 'NONE',  ( 0.0000000000000000000, 0.0000000000000000000, 0.0000000000000000000 ) ) ;
#141 = PRODUCT_DEFINITION_FORMATION_WITH_SPECIFIED_SOURCE ( 'ANY', '', #211, .NOT_KNOWN. ) ;
#142 = ADVANCED_FACE ( 'NONE', ( #21, #83 ), #97, .T. ) ;
#143 = DATE_TIME_ROLE ( 'classification_date' ) ;
#144 = CIRCLE ( 'NONE', #231, 1.999999999999991784 ) ;
#145 = CARTESIAN_POINT ( 'NONE',  ( 4.885231259955590439E-14, 1.999999999999990452, 13.99185842870425134 ) ) ;
#146 = ORIENTED_EDGE ( 'NONE', *, *, #218, .F. ) ;
#147 = PRODUCT_DEFINITION ( 'UNKNOWN', '', #141, #92 ) ;
#148 = PRODUCT_RELATED_PRODUCT_CATEGORY ( 'detail', '', ( #211 ) ) ;
#149 = EDGE_LOOP ( 'NONE', ( #110 ) ) ;
#150 = DIRECTION ( 'NONE',  ( -3.491481338843133355E-15, -4.617495075691520883E-16, -1.000000000000000000 ) ) ;
#151 = DIRECTION ( 'NONE',  ( -3.491481338843133355E-15, 9.031770143711729009E-17, -1.000000000000000000 ) ) ;
#152 = AXIS2_PLACEMENT_3D ( 'NONE', #131, #36, #198 ) ;
#153 = DIRECTION ( 'NONE',  ( -3.491481338843133355E-15, 9.031770143711729009E-17, -1.000000000000000000 ) ) ;
#154 = DIRECTION ( 'NONE',  ( 3.491481338843133355E-15, 4.617495075691520883E-16, 1.000000000000000000 ) ) ;
#155 = PERSON_AND_ORGANIZATION ( #215, #9 ) ;
#156 = PERSON_AND_ORGANIZATION_ROLE ( 'classification_officer' ) ;
#157 = AXIS2_PLACEMENT_3D ( 'NONE', #137, #56, #134 ) ;
#158 = CALENDAR_DATE ( 2021, 26, 11 ) ;
#159 = ORIENTED_EDGE ( 'NONE', *, *, #48, .T. ) ;
#160 = CIRCLE ( 'NONE', #152, 1.999999999999995337 ) ;
#161 = CONICAL_SURFACE ( 'NONE', #73, 1.843059892324148796, 0.5235987755982979275 ) ;
#162 = DIRECTION ( 'NONE',  ( -3.491481338843133355E-15, -4.617495075691520883E-16, -1.000000000000000000 ) ) ;
#163 = CC_DESIGN_DATE_AND_TIME_ASSIGNMENT ( #117, #143, ( #58 ) ) ;
#164 = VERTEX_POINT ( 'NONE', #51 ) ;
#165 = ADVANCED_FACE ( 'NONE', ( #96 ), #70, .T. ) ;
#166 = ORIENTED_EDGE ( 'NONE', *, *, #2, .F. ) ;
#167 = APPROVAL_PERSON_ORGANIZATION ( #3, #186, #139 ) ;
#168 = DIRECTION ( 'NONE',  ( 1.612189788897700798E-30, -1.000000000000000000, 4.617495075691520883E-16 ) ) ;
#169 = DIRECTION ( 'NONE',  ( 3.491481338843133355E-15, -9.031770143711729009E-17, 1.000000000000000000 ) ) ;
#170 = AXIS2_PLACEMENT_3D ( 'NONE', #236, #130, #188 ) ;
#171 = LOCAL_TIME ( 11, 2, 34.00000000000000000, #243 ) ;
#172 = FACE_BOUND ( 'NONE', #23, .T. ) ;
#173 = CARTESIAN_POINT ( 'NONE',  ( 0.0000000000000000000, 0.0000000000000000000, 0.0000000000000000000 ) ) ;
#174 = CLOSED_SHELL ( 'NONE', ( #104, #40, #142, #99, #60 ) ) ;
#175 = PERSON_AND_ORGANIZATION ( #215, #9 ) ;
#176 = APPROVAL_ROLE ( '' ) ;
#177 = PERSON_AND_ORGANIZATION_ROLE ( 'creator' ) ;
#178 = APPLICATION_CONTEXT ( 'configuration controlled 3d designs of mechanical parts and assemblies' ) ;
#179 = EDGE_LOOP ( 'NONE', ( #32 ) ) ;
#180 = LOCAL_TIME ( 11, 2, 34.00000000000000000, #69 ) ;
#181 = EDGE_LOOP ( 'NONE', ( #106 ) ) ;
#182 = DIRECTION ( 'NONE',  ( 0.0000000000000000000, 1.000000000000000000, 0.0000000000000000000 ) ) ;
#183 = FACE_OUTER_BOUND ( 'NONE', #28, .T. ) ;
#184 = CC_DESIGN_PERSON_AND_ORGANIZATION_ASSIGNMENT ( #241, #43, ( #211 ) ) ;
#185 = FACE_OUTER_BOUND ( 'NONE', #76, .T. ) ;
#186 = APPROVAL ( #87, 'UNSPECIFIED' ) ;
#187 = DIRECTION ( 'NONE',  ( -1.612189788897700798E-30, 1.000000000000000000, -4.617495075691520883E-16 ) ) ;
#188 = DIRECTION ( 'NONE',  ( -2.971540897800954259E-30, 1.000000000000000000, -8.364144050032854210E-16 ) ) ;
#189 = APPLICATION_PROTOCOL_DEFINITION ( 'international standard', 'config_control_design', 1994, #178 ) ;
#190 = MANIFOLD_SOLID_BREP ( 'Corps-Déplacer/Copier1[1]', #174 ) ;
#191 = CALENDAR_DATE ( 2021, 26, 11 ) ;
#192 = DIRECTION ( 'NONE',  ( -1.612189788897700798E-30, 1.000000000000000000, -4.617495075691520883E-16 ) ) ;
#193 = EDGE_CURVE ( 'NONE', #79, #79, #240, .T. ) ;
#194 = EDGE_LOOP ( 'NONE', ( #217 ) ) ;
#195 = CARTESIAN_POINT ( 'NONE',  ( 2.793185071074506684E-13, -7.225416114969383207E-15, 80.00000000000000000 ) ) ;
#196 = CIRCLE ( 'NONE', #222, 1.599999999999994982 ) ;
#197 = DIRECTION ( 'NONE',  ( 0.0000000000000000000, 1.000000000000000000, 0.0000000000000000000 ) ) ;
#198 = DIRECTION ( 'NONE',  ( 0.0000000000000000000, 1.000000000000000000, 0.0000000000000000000 ) ) ;
#199 = CC_DESIGN_APPROVAL ( #186, ( #58 ) ) ;
#200 = DIRECTION ( 'NONE',  ( 0.0000000000000000000, 1.000000000000000000, 0.0000000000000000000 ) ) ;
#201 = CC_DESIGN_PERSON_AND_ORGANIZATION_ASSIGNMENT ( #226, #156, ( #58 ) ) ;
#202 = FACE_OUTER_BOUND ( 'NONE', #5, .T. ) ;
#203 = CARTESIAN_POINT ( 'NONE',  ( 4.885231259955590439E-14, -1.263712492114123682E-15, 13.99185842870425134 ) ) ;
#204 = APPLICATION_CONTEXT ( 'configuration controlled 3d designs of mechanical parts and assemblies' ) ;
#205 = DATE_AND_TIME ( #27, #15 ) ;
#206 = CALENDAR_DATE ( 2021, 26, 11 ) ;
#207 = DATE_AND_TIME ( #206, #171 ) ;
#208 = DIRECTION ( 'NONE',  ( -3.491481338843133355E-15, 9.031770143711729009E-17, -1.000000000000000000 ) ) ;
#209 = CALENDAR_DATE ( 2021, 26, 11 ) ;
#210 = ORIENTED_EDGE ( 'NONE', *, *, #128, .T. ) ;
#211 = PRODUCT ( '321318', '321318', '', ( #62 ) ) ;
#212 = CONICAL_SURFACE ( 'NONE', #31, 2.073999999999999400, 0.5235987755982917102 ) ;
#213 = CC_DESIGN_APPROVAL ( #10, ( #147 ) ) ;
#214 = CARTESIAN_POINT ( 'NONE',  ( 2.779219145719134403E-13, 1.999999999999988010, 79.60000000000000853 ) ) ;
#215 = PERSON ( 'UNSPECIFIED', 'UNSPECIFIED', 'UNSPECIFIED', ('UNSPECIFIED'), ('UNSPECIFIED'), ('UNSPECIFIED') ) ;
#216 = LOCAL_TIME ( 11, 2, 34.00000000000000000, #229 ) ;
#217 = ORIENTED_EDGE ( 'NONE', *, *, #193, .T. ) ;
#218 = EDGE_CURVE ( 'NONE', #109, #109, #38, .T. ) ;
#219 = CARTESIAN_POINT ( 'NONE',  ( 0.0000000000000000000, 1.843059892324148796, 0.0000000000000000000 ) ) ;
#220 = CARTESIAN_POINT ( 'NONE',  ( 4.840480329218678452E-14, -1.252136313383439947E-15, 13.86368666894414048 ) ) ;
#221 = DIRECTION ( 'NONE',  ( -1.612189788897701149E-30, 1.000000000000000000, -4.617495075691520883E-16 ) ) ;
#222 = AXIS2_PLACEMENT_3D ( 'NONE', #195, #230, #30 ) ;
#223 = DIRECTION ( 'NONE',  ( -3.491481338843133355E-15, -4.617495075691520883E-16, -1.000000000000000000 ) ) ;
#224 =( NAMED_UNIT ( * ) PLANE_ANGLE_UNIT ( ) SI_UNIT ( $, .RADIAN. ) );
#225 = FACE_OUTER_BOUND ( 'NONE', #179, .T. ) ;
#226 = PERSON_AND_ORGANIZATION ( #215, #9 ) ;
#227 = APPROVAL_STATUS ( 'not_yet_approved' ) ;
#228 = APPROVAL_ROLE ( '' ) ;
#229 = COORDINATED_UNIVERSAL_TIME_OFFSET ( 1, 0, .AHEAD. ) ;
#230 = DIRECTION ( 'NONE',  ( -3.491481338843133355E-15, 9.031770143711729009E-17, -1.000000000000000000 ) ) ;
#231 = AXIS2_PLACEMENT_3D ( 'NONE', #203, #80, #39 ) ;
#232 = EDGE_CURVE ( 'NONE', #13, #13, #196, .T. ) ;
#233 = AXIS2_PLACEMENT_3D ( 'NONE', #140, #208, #44 ) ;
#234 = CARTESIAN_POINT ( 'NONE',  ( 4.840480329218678452E-14, 2.073999999999998067, 13.86368666894414048 ) ) ;
#235 = CYLINDRICAL_SURFACE ( 'NONE', #123, 2.073999999999994959 ) ;
#236 = CARTESIAN_POINT ( 'NONE',  ( 4.840480329218679084E-14, 6.401550492477975368E-15, 13.86368666894414226 ) ) ;
#237 =( GEOMETRIC_REPRESENTATION_CONTEXT ( 3 ) GLOBAL_UNCERTAINTY_ASSIGNED_CONTEXT ( ( #57 ) ) GLOBAL_UNIT_ASSIGNED_CONTEXT ( ( #41, #224, #132 ) ) REPRESENTATION_CONTEXT ( 'NONE', 'WORKASPACE' ) );
#238 = CC_DESIGN_PERSON_AND_ORGANIZATION_ASSIGNMENT ( #175, #98, ( #147 ) ) ;
#239 = CARTESIAN_POINT ( 'NONE',  ( 4.840480329218678452E-14, -1.252136313383439947E-15, 13.86368666894414048 ) ) ;
#240 = CIRCLE ( 'NONE', #66, 1.843059892324148796 ) ;
#241 = PERSON_AND_ORGANIZATION ( #215, #9 ) ;
#242 = APPROVAL_PERSON_ORGANIZATION ( #25, #10, #228 ) ;
#243 = COORDINATED_UNIVERSAL_TIME_OFFSET ( 1, 0, .AHEAD. ) ;
ENDSEC;
END-ISO-10303-21;
