ISO-10303-21;
HEADER;
FILE_DESCRIPTION (( 'STEP AP203' ),
    '1' );
FILE_NAME ('321317.step',
    '2021-11-26T10:02:34',
    ( '' ),
    ( '' ),
    'SwSTEP 2.0',
    'SolidWorks 2019',
    '' );
FILE_SCHEMA (( 'CONFIG_CONTROL_DESIGN' ));
ENDSEC;

DATA;
#1 =( NAMED_UNIT ( * ) PLANE_ANGLE_UNIT ( ) SI_UNIT ( $, .RADIAN. ) );
#2 = ORIENTED_EDGE ( 'NONE', *, *, #209, .T. ) ;
#3 = CARTESIAN_POINT ( 'NONE',  ( 0.0000000000000000000, 0.0000000000000000000, 0.0000000000000000000 ) ) ;
#4 = CARTESIAN_POINT ( 'NONE',  ( 4.843504040754957219E-14, 6.399429342000518180E-15, 13.87234692298198624 ) ) ;
#5 = APPLICATION_PROTOCOL_DEFINITION ( 'international standard', 'config_control_design', 1994, #138 ) ;
#6 = AXIS2_PLACEMENT_3D ( 'NONE', #3, #74, #133 ) ;
#7 = EDGE_LOOP ( 'NONE', ( #78 ) ) ;
#8 = CC_DESIGN_PERSON_AND_ORGANIZATION_ASSIGNMENT ( #230, #39, ( #69 ) ) ;
#9 = LOCAL_TIME ( 11, 2, 34.00000000000000000, #36 ) ;
#10 = PERSON_AND_ORGANIZATION ( #41, #186 ) ;
#11 = CARTESIAN_POINT ( 'NONE',  ( 4.885231259955590439E-14, -1.263712492114123682E-15, 13.99185842870425134 ) ) ;
#12 = CYLINDRICAL_SURFACE ( 'NONE', #123, 2.068999999999995509 ) ;
#13 = CARTESIAN_POINT ( 'NONE',  ( 0.0000000000000000000, 0.0000000000000000000, 0.0000000000000000000 ) ) ;
#14 = CARTESIAN_POINT ( 'NONE',  ( -1.480235089584154964E-30, 1.838059892324148903, -4.239561796067384300E-16 ) ) ;
#15 = CARTESIAN_POINT ( 'NONE',  ( 2.960470179168309928E-30, 3.911490435699978296E-31, 8.479123592134768601E-16 ) ) ;
#16 = CIRCLE ( 'NONE', #43, 1.838059892324148903 ) ;
#17 = APPROVAL ( #58, 'UNSPECIFIED' ) ;
#18 = PERSON_AND_ORGANIZATION ( #41, #186 ) ;
#19 = AXIS2_PLACEMENT_3D ( 'NONE', #173, #34, #108 ) ;
#20 = CALENDAR_DATE ( 2021, 26, 11 ) ;
#21 = EDGE_CURVE ( 'NONE', #170, #170, #52, .T. ) ;
#22 = EDGE_LOOP ( 'NONE', ( #119 ) ) ;
#23 = DATE_TIME_ROLE ( 'classification_date' ) ;
#24 = APPROVAL_DATE_TIME ( #136, #241 ) ;
#25 = ORIENTED_EDGE ( 'NONE', *, *, #163, .T. ) ;
#26 = DIRECTION ( 'NONE',  ( 0.0000000000000000000, 1.000000000000000000, 0.0000000000000000000 ) ) ;
#27 = FACE_OUTER_BOUND ( 'NONE', #113, .T. ) ;
#28 =( GEOMETRIC_REPRESENTATION_CONTEXT ( 3 ) GLOBAL_UNCERTAINTY_ASSIGNED_CONTEXT ( ( #66 ) ) GLOBAL_UNIT_ASSIGNED_CONTEXT ( ( #224, #1, #38 ) ) REPRESENTATION_CONTEXT ( 'NONE', 'WORKASPACE' ) );
#29 = ADVANCED_FACE ( 'NONE', ( #202 ), #150, .T. ) ;
#30 = DIRECTION ( 'NONE',  ( -3.491481338843133355E-15, -4.613083407969516588E-16, -1.000000000000000000 ) ) ;
#31 = DIRECTION ( 'NONE',  ( -3.491481338843133355E-15, 9.031770143711729009E-17, -1.000000000000000000 ) ) ;
#32 = DIRECTION ( 'NONE',  ( 0.0000000000000000000, 1.000000000000000000, 0.0000000000000000000 ) ) ;
#33 = MECHANICAL_CONTEXT ( 'NONE', #138, 'mechanical' ) ;
#34 = DIRECTION ( 'NONE',  ( 3.491481338843133355E-15, 4.613083407969516588E-16, 1.000000000000000000 ) ) ;
#35 = PLANE ( 'NONE',  #19 ) ;
#36 = COORDINATED_UNIVERSAL_TIME_OFFSET ( 1, 0, .AHEAD. ) ;
#37 = ORIENTED_EDGE ( 'NONE', *, *, #215, .F. ) ;
#38 =( NAMED_UNIT ( * ) SI_UNIT ( $, .STERADIAN. ) SOLID_ANGLE_UNIT ( ) );
#39 = PERSON_AND_ORGANIZATION_ROLE ( 'classification_officer' ) ;
#40 = ORIENTED_EDGE ( 'NONE', *, *, #147, .T. ) ;
#41 = PERSON ( 'UNSPECIFIED', 'UNSPECIFIED', 'UNSPECIFIED', ('UNSPECIFIED'), ('UNSPECIFIED'), ('UNSPECIFIED') ) ;
#42 = CALENDAR_DATE ( 2021, 26, 11 ) ;
#43 = AXIS2_PLACEMENT_3D ( 'NONE', #162, #197, #165 ) ;
#44 = DIRECTION ( 'NONE',  ( 3.491481338843133355E-15, -9.031770143711729009E-17, 1.000000000000000000 ) ) ;
#45 = CC_DESIGN_PERSON_AND_ORGANIZATION_ASSIGNMENT ( #61, #95, ( #149 ) ) ;
#46 = FACE_BOUND ( 'NONE', #54, .T. ) ;
#47 = MANIFOLD_SOLID_BREP ( 'Corps-Déplacer/Copier1[2]', #238 ) ;
#48 = CARTESIAN_POINT ( 'NONE',  ( 1.396592535537256300E-15, 1.845233363187810580E-16, 0.4000000000000009104 ) ) ;
#49 = DIRECTION ( 'NONE',  ( 3.153425691349006731E-31, 1.000000000000000000, 9.031770143711729009E-17 ) ) ;
#50 = CARTESIAN_POINT ( 'NONE',  ( 4.843504040754957219E-14, 2.068999999999998174, 13.87234692298198624 ) ) ;
#51 = PERSON_AND_ORGANIZATION_ROLE ( 'creator' ) ;
#52 = CIRCLE ( 'NONE', #144, 2.068999999999991957 ) ;
#53 = APPROVAL ( #222, 'UNSPECIFIED' ) ;
#54 = EDGE_LOOP ( 'NONE', ( #25 ) ) ;
#55 = LOCAL_TIME ( 11, 2, 34.00000000000000000, #94 ) ;
#56 = AXIS2_PLACEMENT_3D ( 'NONE', #48, #67, #126 ) ;
#57 = EDGE_LOOP ( 'NONE', ( #62 ) ) ;
#58 = APPROVAL_STATUS ( 'not_yet_approved' ) ;
#59 = CIRCLE ( 'NONE', #83, 1.999999999999995337 ) ;
#60 = ADVANCED_FACE ( 'NONE', ( #46, #101 ), #231, .T. ) ;
#61 = PERSON_AND_ORGANIZATION ( #41, #186 ) ;
#62 = ORIENTED_EDGE ( 'NONE', *, *, #171, .T. ) ;
#63 = AXIS2_PLACEMENT_3D ( 'NONE', #14, #121, #87 ) ;
#64 = AXIS2_PLACEMENT_3D ( 'NONE', #13, #235, #180 ) ;
#65 = FACE_OUTER_BOUND ( 'NONE', #225, .T. ) ;
#66 = UNCERTAINTY_MEASURE_WITH_UNIT (LENGTH_MEASURE( 1.000000000000000082E-05 ), #224, 'distance_accuracy_value', 'NONE');
#67 = DIRECTION ( 'NONE',  ( -3.491481338843133355E-15, -4.613083407969516588E-16, -1.000000000000000000 ) ) ;
#68 = DIRECTION ( 'NONE',  ( -3.491481338843133355E-15, 9.031770143711729009E-17, -1.000000000000000000 ) ) ;
#69 = SECURITY_CLASSIFICATION ( '', '', #210 ) ;
#70 = CARTESIAN_POINT ( 'NONE',  ( 2.779219145719134403E-13, -7.189289034394536528E-15, 79.60000000000000853 ) ) ;
#71 = VERTEX_POINT ( 'NONE', #167 ) ;
#72 = DATE_TIME_ROLE ( 'creation_date' ) ;
#73 = EDGE_CURVE ( 'NONE', #129, #129, #219, .T. ) ;
#74 = DIRECTION ( 'NONE',  ( 0.0000000000000000000, 0.0000000000000000000, 1.000000000000000000 ) ) ;
#75 = ORIENTED_EDGE ( 'NONE', *, *, #147, .F. ) ;
#76 = APPROVAL_ROLE ( '' ) ;
#77 = VERTEX_POINT ( 'NONE', #187 ) ;
#78 = ORIENTED_EDGE ( 'NONE', *, *, #21, .T. ) ;
#79 = PRODUCT_DEFINITION_SHAPE ( 'NONE', 'NONE',  #96 ) ;
#80 = CALENDAR_DATE ( 2021, 26, 11 ) ;
#81 = CC_DESIGN_APPROVAL ( #53, ( #96 ) ) ;
#82 = ADVANCED_FACE ( 'NONE', ( #213 ), #182, .T. ) ;
#83 = AXIS2_PLACEMENT_3D ( 'NONE', #70, #128, #32 ) ;
#84 = PERSON_AND_ORGANIZATION ( #41, #186 ) ;
#85 = CARTESIAN_POINT ( 'NONE',  ( 2.793185071074506684E-13, -7.225416114969383207E-15, 80.00000000000000000 ) ) ;
#86 = AXIS2_PLACEMENT_3D ( 'NONE', #90, #103, #146 ) ;
#87 = DIRECTION ( 'NONE',  ( -1.610649463345245050E-30, 1.000000000000000000, -4.613083407969516588E-16 ) ) ;
#88 = DIRECTION ( 'NONE',  ( -2.978722001952237012E-30, 1.000000000000000000, -8.384357061270245292E-16 ) ) ;
#89 = DIRECTION ( 'NONE',  ( -1.610649463345244699E-30, 1.000000000000000000, -4.613083407969515602E-16 ) ) ;
#90 = CARTESIAN_POINT ( 'NONE',  ( 4.843504040754956588E-14, -1.252918487621999637E-15, 13.87234692298198446 ) ) ;
#91 = CARTESIAN_POINT ( 'NONE',  ( 4.885231259955590439E-14, 1.999999999999990452, 13.99185842870425134 ) ) ;
#92 = AXIS2_PLACEMENT_3D ( 'NONE', #85, #160, #232 ) ;
#93 = EDGE_LOOP ( 'NONE', ( #157 ) ) ;
#94 = COORDINATED_UNIVERSAL_TIME_OFFSET ( 1, 0, .AHEAD. ) ;
#95 = PERSON_AND_ORGANIZATION_ROLE ( 'design_supplier' ) ;
#96 = PRODUCT_DEFINITION ( 'UNKNOWN', '', #149, #161 ) ;
#97 = APPLICATION_CONTEXT ( 'configuration controlled 3d designs of mechanical parts and assemblies' ) ;
#98 = DATE_AND_TIME ( #42, #55 ) ;
#99 = CC_DESIGN_APPROVAL ( #17, ( #69 ) ) ;
#100 = EDGE_LOOP ( 'NONE', ( #75 ) ) ;
#101 = FACE_OUTER_BOUND ( 'NONE', #93, .T. ) ;
#102 = CARTESIAN_POINT ( 'NONE',  ( 2.779219145719134403E-13, -7.189289034394536528E-15, 79.60000000000000853 ) ) ;
#103 = DIRECTION ( 'NONE',  ( -3.491481338843133355E-15, 9.031770143711729009E-17, -1.000000000000000000 ) ) ;
#104 = DIRECTION ( 'NONE',  ( -3.491481338843133355E-15, 9.031770143711729009E-17, -1.000000000000000000 ) ) ;
#105 = ADVANCED_FACE ( 'NONE', ( #151, #212 ), #229, .T. ) ;
#106 = FACE_BOUND ( 'NONE', #100, .T. ) ;
#107 = CLOSED_SHELL ( 'NONE', ( #228, #105, #154, #60, #82 ) ) ;
#108 = DIRECTION ( 'NONE',  ( 1.610649463345245050E-30, -1.000000000000000000, 4.613083407969516588E-16 ) ) ;
#109 = CALENDAR_DATE ( 2021, 26, 11 ) ;
#110 = APPROVAL_PERSON_ORGANIZATION ( #152, #53, #76 ) ;
#111 = DATE_AND_TIME ( #132, #191 ) ;
#112 = CONICAL_SURFACE ( 'NONE', #192, 1.838059892324148903, 0.5235987755982979275 ) ;
#113 = EDGE_LOOP ( 'NONE', ( #142 ) ) ;
#114 = CARTESIAN_POINT ( 'NONE',  ( 4.843504040754956588E-14, 2.068999999999998174, 13.87234692298198446 ) ) ;
#115 = ORIENTED_EDGE ( 'NONE', *, *, #215, .T. ) ;
#116 = ADVANCED_FACE ( 'NONE', ( #200, #184 ), #12, .T. ) ;
#117 = APPROVAL_ROLE ( '' ) ;
#118 = SHAPE_DEFINITION_REPRESENTATION ( #79, #243 ) ;
#119 = ORIENTED_EDGE ( 'NONE', *, *, #73, .F. ) ;
#120 = DIRECTION ( 'NONE',  ( -3.491481338843133355E-15, 9.031770143711729009E-17, -1.000000000000000000 ) ) ;
#121 = DIRECTION ( 'NONE',  ( -3.491481338843133355E-15, -4.613083407969516588E-16, -1.000000000000000000 ) ) ;
#122 = CC_DESIGN_SECURITY_CLASSIFICATION ( #69, ( #149 ) ) ;
#123 = AXIS2_PLACEMENT_3D ( 'NONE', #203, #30, #89 ) ;
#124 = AXIS2_PLACEMENT_3D ( 'NONE', #211, #44, #199 ) ;
#125 = CC_DESIGN_PERSON_AND_ORGANIZATION_ASSIGNMENT ( #18, #51, ( #96 ) ) ;
#126 = DIRECTION ( 'NONE',  ( -1.582446063537120833E-30, 1.000000000000000000, -4.716200846964498185E-16 ) ) ;
#127 = MANIFOLD_SOLID_BREP ( 'Corps-Déplacer/Copier1[1]', #107 ) ;
#128 = DIRECTION ( 'NONE',  ( -3.491481338843133355E-15, 9.031770143711729009E-17, -1.000000000000000000 ) ) ;
#129 = VERTEX_POINT ( 'NONE', #168 ) ;
#130 = CC_DESIGN_DATE_AND_TIME_ASSIGNMENT ( #159, #23, ( #69 ) ) ;
#131 = CC_DESIGN_APPROVAL ( #241, ( #149 ) ) ;
#132 = CALENDAR_DATE ( 2021, 26, 11 ) ;
#133 = DIRECTION ( 'NONE',  ( 1.000000000000000000, 0.0000000000000000000, 0.0000000000000000000 ) ) ;
#134 = PERSON_AND_ORGANIZATION_ROLE ( 'design_owner' ) ;
#135 = EDGE_LOOP ( 'NONE', ( #172 ) ) ;
#136 = DATE_AND_TIME ( #20, #177 ) ;
#137 = ORIENTED_EDGE ( 'NONE', *, *, #163, .F. ) ;
#138 = APPLICATION_CONTEXT ( 'configuration controlled 3d designs of mechanical parts and assemblies' ) ;
#139 = APPROVAL_PERSON_ORGANIZATION ( #153, #241, #221 ) ;
#140 = APPROVAL_DATE_TIME ( #98, #17 ) ;
#141 = COORDINATED_UNIVERSAL_TIME_OFFSET ( 1, 0, .AHEAD. ) ;
#142 = ORIENTED_EDGE ( 'NONE', *, *, #21, .F. ) ;
#143 = LOCAL_TIME ( 11, 2, 34.00000000000000000, #141 ) ;
#144 = AXIS2_PLACEMENT_3D ( 'NONE', #4, #234, #88 ) ;
#145 = PLANE ( 'NONE',  #124 ) ;
#146 = DIRECTION ( 'NONE',  ( 0.0000000000000000000, 1.000000000000000000, 0.0000000000000000000 ) ) ;
#147 = EDGE_CURVE ( 'NONE', #194, #194, #16, .T. ) ;
#148 = FACE_OUTER_BOUND ( 'NONE', #196, .T. ) ;
#149 = PRODUCT_DEFINITION_FORMATION_WITH_SPECIFIED_SOURCE ( 'ANY', '', #156, .NOT_KNOWN. ) ;
#150 = PLANE ( 'NONE',  #63 ) ;
#151 = FACE_BOUND ( 'NONE', #223, .T. ) ;
#152 = PERSON_AND_ORGANIZATION ( #41, #186 ) ;
#153 = PERSON_AND_ORGANIZATION ( #41, #186 ) ;
#154 = ADVANCED_FACE ( 'NONE', ( #237, #183 ), #216, .T. ) ;
#155 = APPROVAL_DATE_TIME ( #218, #53 ) ;
#156 = PRODUCT ( '321317', '321317', '', ( #33 ) ) ;
#157 = ORIENTED_EDGE ( 'NONE', *, *, #209, .F. ) ;
#158 = AXIS2_PLACEMENT_3D ( 'NONE', #217, #120, #26 ) ;
#159 = DATE_AND_TIME ( #80, #143 ) ;
#160 = DIRECTION ( 'NONE',  ( -3.491481338843133355E-15, 9.031770143711729009E-17, -1.000000000000000000 ) ) ;
#161 = DESIGN_CONTEXT ( 'detailed design', #97, 'design' ) ;
#162 = CARTESIAN_POINT ( 'NONE',  ( 2.960470179168309928E-30, 3.911490435699978296E-31, 8.479123592134768601E-16 ) ) ;
#163 = EDGE_CURVE ( 'NONE', #188, #188, #175, .T. ) ;
#164 = DIRECTION ( 'NONE',  ( 0.0000000000000000000, 1.000000000000000000, 0.0000000000000000000 ) ) ;
#165 = DIRECTION ( 'NONE',  ( -1.610649463345245050E-30, 1.000000000000000000, -4.613083407969517574E-16 ) ) ;
#166 = DIRECTION ( 'NONE',  ( 3.491481338843133355E-15, 4.613083407969516588E-16, 1.000000000000000000 ) ) ;
#167 = CARTESIAN_POINT ( 'NONE',  ( 4.843504040754956588E-14, 2.068999999999998174, 13.87234692298198446 ) ) ;
#168 = CARTESIAN_POINT ( 'NONE',  ( 1.396592535537253145E-15, 2.068999999999998618, 0.3999999999999999112 ) ) ;
#169 = AXIS2_PLACEMENT_3D ( 'NONE', #50, #31, #49 ) ;
#170 = VERTEX_POINT ( 'NONE', #114 ) ;
#171 = EDGE_CURVE ( 'NONE', #208, #208, #59, .T. ) ;
#172 = ORIENTED_EDGE ( 'NONE', *, *, #171, .F. ) ;
#173 = CARTESIAN_POINT ( 'NONE',  ( 4.843504040754957219E-14, 6.399429342000518180E-15, 13.87234692298198624 ) ) ;
#174 = CARTESIAN_POINT ( 'NONE',  ( 3.421138828918010427E-46, 1.838059892324148903, 0.0000000000000000000 ) ) ;
#175 = CIRCLE ( 'NONE', #233, 1.999999999999991784 ) ;
#176 = EDGE_LOOP ( 'NONE', ( #40 ) ) ;
#177 = LOCAL_TIME ( 11, 2, 34.00000000000000000, #190 ) ;
#178 = PERSON_AND_ORGANIZATION_ROLE ( 'creator' ) ;
#179 = ORIENTED_EDGE ( 'NONE', *, *, #73, .T. ) ;
#180 = DIRECTION ( 'NONE',  ( 3.153425691349006731E-31, 1.000000000000000000, 9.031770143711729009E-17 ) ) ;
#181 = CC_DESIGN_PERSON_AND_ORGANIZATION_ASSIGNMENT ( #84, #178, ( #149 ) ) ;
#182 = PLANE ( 'NONE',  #169 ) ;
#183 = FACE_OUTER_BOUND ( 'NONE', #227, .T. ) ;
#184 = FACE_OUTER_BOUND ( 'NONE', #22, .T. ) ;
#185 = DIRECTION ( 'NONE',  ( 0.0000000000000000000, 1.000000000000000000, 0.0000000000000000000 ) ) ;
#186 = ORGANIZATION ( 'UNSPECIFIED', 'UNSPECIFIED', '' ) ;
#187 = CARTESIAN_POINT ( 'NONE',  ( 2.793185071074506684E-13, 1.599999999999987876, 80.00000000000000000 ) ) ;
#188 = VERTEX_POINT ( 'NONE', #91 ) ;
#189 = CC_DESIGN_PERSON_AND_ORGANIZATION_ASSIGNMENT ( #240, #134, ( #156 ) ) ;
#190 = COORDINATED_UNIVERSAL_TIME_OFFSET ( 1, 0, .AHEAD. ) ;
#191 = LOCAL_TIME ( 11, 2, 34.00000000000000000, #242 ) ;
#192 = AXIS2_PLACEMENT_3D ( 'NONE', #15, #166, #239 ) ;
#193 = APPROVAL_STATUS ( 'not_yet_approved' ) ;
#194 = VERTEX_POINT ( 'NONE', #174 ) ;
#195 = ADVANCED_FACE ( 'NONE', ( #148, #106 ), #112, .T. ) ;
#196 = EDGE_LOOP ( 'NONE', ( #179 ) ) ;
#197 = DIRECTION ( 'NONE',  ( -3.491481338843133355E-15, -4.613083407969516588E-16, -1.000000000000000000 ) ) ;
#198 = CC_DESIGN_DATE_AND_TIME_ASSIGNMENT ( #111, #72, ( #96 ) ) ;
#199 = DIRECTION ( 'NONE',  ( -3.153425691349006731E-31, -1.000000000000000000, -9.031770143711729009E-17 ) ) ;
#200 = FACE_OUTER_BOUND ( 'NONE', #7, .T. ) ;
#201 = CIRCLE ( 'NONE', #92, 1.599999999999994982 ) ;
#202 = FACE_OUTER_BOUND ( 'NONE', #176, .T. ) ;
#203 = CARTESIAN_POINT ( 'NONE',  ( 0.0000000000000000000, 0.0000000000000000000, 0.0000000000000000000 ) ) ;
#204 = CARTESIAN_POINT ( 'NONE',  ( 2.779219145719134403E-13, 1.999999999999988010, 79.60000000000000853 ) ) ;
#205 = PRODUCT_RELATED_PRODUCT_CATEGORY ( 'detail', '', ( #156 ) ) ;
#206 = APPLICATION_PROTOCOL_DEFINITION ( 'international standard', 'config_control_design', 1994, #97 ) ;
#207 = APPROVAL_PERSON_ORGANIZATION ( #10, #17, #117 ) ;
#208 = VERTEX_POINT ( 'NONE', #204 ) ;
#209 = EDGE_CURVE ( 'NONE', #71, #71, #214, .T. ) ;
#210 = SECURITY_CLASSIFICATION_LEVEL ( 'unclassified' ) ;
#211 = CARTESIAN_POINT ( 'NONE',  ( 2.793185071074506684E-13, -7.225416114969383207E-15, 80.00000000000000000 ) ) ;
#212 = FACE_OUTER_BOUND ( 'NONE', #135, .T. ) ;
#213 = FACE_OUTER_BOUND ( 'NONE', #226, .T. ) ;
#214 = CIRCLE ( 'NONE', #158, 2.068999999999999506 ) ;
#215 = EDGE_CURVE ( 'NONE', #77, #77, #201, .T. ) ;
#216 = CYLINDRICAL_SURFACE ( 'NONE', #64, 1.999999999999993561 ) ;
#217 = CARTESIAN_POINT ( 'NONE',  ( 4.843504040754956588E-14, -1.252918487621999637E-15, 13.87234692298198446 ) ) ;
#218 = DATE_AND_TIME ( #109, #9 ) ;
#219 = CIRCLE ( 'NONE', #56, 2.068999999999998618 ) ;
#220 = AXIS2_PLACEMENT_3D ( 'NONE', #102, #104, #164 ) ;
#221 = APPROVAL_ROLE ( '' ) ;
#222 = APPROVAL_STATUS ( 'not_yet_approved' ) ;
#223 = EDGE_LOOP ( 'NONE', ( #115 ) ) ;
#224 =( LENGTH_UNIT ( ) NAMED_UNIT ( * ) SI_UNIT ( .MILLI., .METRE. ) );
#225 = EDGE_LOOP ( 'NONE', ( #37 ) ) ;
#226 = EDGE_LOOP ( 'NONE', ( #2 ) ) ;
#227 = EDGE_LOOP ( 'NONE', ( #137 ) ) ;
#228 = ADVANCED_FACE ( 'NONE', ( #65 ), #145, .T. ) ;
#229 = CONICAL_SURFACE ( 'NONE', #220, 1.999999999999995337, 0.7853981633974516097 ) ;
#230 = PERSON_AND_ORGANIZATION ( #41, #186 ) ;
#231 = CONICAL_SURFACE ( 'NONE', #86, 2.068999999999999506, 0.5235987755982953740 ) ;
#232 = DIRECTION ( 'NONE',  ( 0.0000000000000000000, 1.000000000000000000, 0.0000000000000000000 ) ) ;
#233 = AXIS2_PLACEMENT_3D ( 'NONE', #11, #68, #185 ) ;
#234 = DIRECTION ( 'NONE',  ( -3.491481338843133355E-15, -4.613083407969516588E-16, -1.000000000000000000 ) ) ;
#235 = DIRECTION ( 'NONE',  ( -3.491481338843133355E-15, 9.031770143711729009E-17, -1.000000000000000000 ) ) ;
#236 = ADVANCED_FACE ( 'NONE', ( #27 ), #35, .T. ) ;
#237 = FACE_OUTER_BOUND ( 'NONE', #57, .T. ) ;
#238 = CLOSED_SHELL ( 'NONE', ( #236, #116, #195, #29 ) ) ;
#239 = DIRECTION ( 'NONE',  ( 1.610649463345245050E-30, -1.000000000000000000, 4.613083407969517574E-16 ) ) ;
#240 = PERSON_AND_ORGANIZATION ( #41, #186 ) ;
#241 = APPROVAL ( #193, 'UNSPECIFIED' ) ;
#242 = COORDINATED_UNIVERSAL_TIME_OFFSET ( 1, 0, .AHEAD. ) ;
#243 = ADVANCED_BREP_SHAPE_REPRESENTATION ( '321317', ( #127, #47, #6 ), #28 ) ;
ENDSEC;
END-ISO-10303-21;
