ISO-10303-21;
HEADER;
FILE_DESCRIPTION (( 'STEP AP203' ),
    '1' );
FILE_NAME ('321316.step',
    '2021-11-26T10:02:33',
    ( '' ),
    ( '' ),
    'SwSTEP 2.0',
    'SolidWorks 2019',
    '' );
FILE_SCHEMA (( 'CONFIG_CONTROL_DESIGN' ));
ENDSEC;

DATA;
#1 = AXIS2_PLACEMENT_3D ( 'NONE', #197, #233, #28 ) ;
#2 = PERSON_AND_ORGANIZATION ( #238, #215 ) ;
#3 = ORIENTED_EDGE ( 'NONE', *, *, #134, .F. ) ;
#4 = COORDINATED_UNIVERSAL_TIME_OFFSET ( 1, 0, .AHEAD. ) ;
#5 = APPROVAL_PERSON_ORGANIZATION ( #188, #63, #54 ) ;
#6 = PERSON_AND_ORGANIZATION_ROLE ( 'classification_officer' ) ;
#7 = EDGE_LOOP ( 'NONE', ( #116 ) ) ;
#8 = DATE_AND_TIME ( #59, #211 ) ;
#9 = ORIENTED_EDGE ( 'NONE', *, *, #68, .T. ) ;
#10 = CC_DESIGN_DATE_AND_TIME_ASSIGNMENT ( #90, #147, ( #129 ) ) ;
#11 = LOCAL_TIME ( 11, 2, 33.00000000000000000, #20 ) ;
#12 = DIRECTION ( 'NONE',  ( -2.985937898274796535E-30, 1.000000000000000000, -8.404668003763634792E-16 ) ) ;
#13 = DIRECTION ( 'NONE',  ( 3.153425691349006731E-31, 1.000000000000000000, 9.031770143711729009E-17 ) ) ;
#14 = FACE_OUTER_BOUND ( 'NONE', #77, .T. ) ;
#15 = UNCERTAINTY_MEASURE_WITH_UNIT (LENGTH_MEASURE( 1.000000000000000082E-05 ), #55, 'distance_accuracy_value', 'NONE');
#16 = DIRECTION ( 'NONE',  ( 0.0000000000000000000, 1.000000000000000000, 0.0000000000000000000 ) ) ;
#17 = CARTESIAN_POINT ( 'NONE',  ( 4.846527752291233461E-14, 6.397308191523070458E-15, 13.88100717701983022 ) ) ;
#18 = CALENDAR_DATE ( 2021, 26, 11 ) ;
#19 = CONICAL_SURFACE ( 'NONE', #206, 1.833059892324148787, 0.5235987755982979275 ) ;
#20 = COORDINATED_UNIVERSAL_TIME_OFFSET ( 1, 0, .AHEAD. ) ;
#21 = DIRECTION ( 'NONE',  ( 1.000000000000000000, 0.0000000000000000000, 0.0000000000000000000 ) ) ;
#22 = ADVANCED_FACE ( 'NONE', ( #44 ), #193, .T. ) ;
#23 = CIRCLE ( 'NONE', #219, 1.999999999999991784 ) ;
#24 = EDGE_LOOP ( 'NONE', ( #39 ) ) ;
#25 = DIRECTION ( 'NONE',  ( -3.491481338843133355E-15, 9.031770143711729009E-17, -1.000000000000000000 ) ) ;
#26 = FACE_OUTER_BOUND ( 'NONE', #191, .T. ) ;
#27 = CYLINDRICAL_SURFACE ( 'NONE', #117, 1.999999999999993561 ) ;
#28 = DIRECTION ( 'NONE',  ( 0.0000000000000000000, 1.000000000000000000, 0.0000000000000000000 ) ) ;
#29 = EDGE_CURVE ( 'NONE', #111, #111, #46, .T. ) ;
#30 = DIRECTION ( 'NONE',  ( 1.609111059787417157E-30, -1.000000000000000000, 4.608677245058911029E-16 ) ) ;
#31 = APPROVAL_STATUS ( 'not_yet_approved' ) ;
#32 = CARTESIAN_POINT ( 'NONE',  ( 0.0000000000000000000, 0.0000000000000000000, 0.0000000000000000000 ) ) ;
#33 = CARTESIAN_POINT ( 'NONE',  ( 4.846527752291232830E-14, 2.063999999999998280, 13.88100717701982845 ) ) ;
#34 = PERSON_AND_ORGANIZATION_ROLE ( 'design_supplier' ) ;
#35 = ADVANCED_FACE ( 'NONE', ( #103 ), #199, .T. ) ;
#36 = SECURITY_CLASSIFICATION ( '', '', #170 ) ;
#37 = EDGE_LOOP ( 'NONE', ( #41 ) ) ;
#38 = ORIENTED_EDGE ( 'NONE', *, *, #186, .F. ) ;
#39 = ORIENTED_EDGE ( 'NONE', *, *, #181, .T. ) ;
#40 = AXIS2_PLACEMENT_3D ( 'NONE', #67, #87, #220 ) ;
#41 = ORIENTED_EDGE ( 'NONE', *, *, #68, .F. ) ;
#42 = FACE_OUTER_BOUND ( 'NONE', #157, .T. ) ;
#43 = MANIFOLD_SOLID_BREP ( 'Corps-Déplacer/Copier1[1]', #66 ) ;
#44 = FACE_OUTER_BOUND ( 'NONE', #80, .T. ) ;
#45 = ADVANCED_FACE ( 'NONE', ( #42, #216 ), #19, .T. ) ;
#46 = CIRCLE ( 'NONE', #187, 2.063999999999998725 ) ;
#47 = DIRECTION ( 'NONE',  ( 1.609111059787417157E-30, -1.000000000000000000, 4.608677245058911029E-16 ) ) ;
#48 = DIRECTION ( 'NONE',  ( 0.0000000000000000000, 1.000000000000000000, 0.0000000000000000000 ) ) ;
#49 = CC_DESIGN_PERSON_AND_ORGANIZATION_ASSIGNMENT ( #227, #57, ( #73 ) ) ;
#50 = DIRECTION ( 'NONE',  ( 0.0000000000000000000, 1.000000000000000000, 0.0000000000000000000 ) ) ;
#51 = APPLICATION_PROTOCOL_DEFINITION ( 'international standard', 'config_control_design', 1994, #144 ) ;
#52 = CC_DESIGN_APPROVAL ( #58, ( #129 ) ) ;
#53 = CARTESIAN_POINT ( 'NONE',  ( 4.846527752291232830E-14, 2.063999999999998280, 13.88100717701982845 ) ) ;
#54 = APPROVAL_ROLE ( '' ) ;
#55 =( LENGTH_UNIT ( ) NAMED_UNIT ( * ) SI_UNIT ( .MILLI., .METRE. ) );
#56 = AXIS2_PLACEMENT_3D ( 'NONE', #65, #195, #221 ) ;
#57 = PERSON_AND_ORGANIZATION_ROLE ( 'design_owner' ) ;
#58 = APPROVAL ( #31, 'UNSPECIFIED' ) ;
#59 = CALENDAR_DATE ( 2021, 26, 11 ) ;
#60 = ORIENTED_EDGE ( 'NONE', *, *, #134, .T. ) ;
#61 = EDGE_LOOP ( 'NONE', ( #114 ) ) ;
#62 = CIRCLE ( 'NONE', #243, 1.599999999999994982 ) ;
#63 = APPROVAL ( #224, 'UNSPECIFIED' ) ;
#64 = DIRECTION ( 'NONE',  ( 0.0000000000000000000, 1.000000000000000000, 0.0000000000000000000 ) ) ;
#65 = CARTESIAN_POINT ( 'NONE',  ( 2.793185071074506684E-13, -7.225416114969383207E-15, 80.00000000000000000 ) ) ;
#66 = CLOSED_SHELL ( 'NONE', ( #35, #178, #154, #150, #208 ) ) ;
#67 = CARTESIAN_POINT ( 'NONE',  ( -1.474798472995759937E-30, 1.833059892324148787, -4.223990707292221239E-16 ) ) ;
#68 = EDGE_CURVE ( 'NONE', #225, #225, #232, .T. ) ;
#69 = DIRECTION ( 'NONE',  ( -3.491481338843133355E-15, 9.031770143711729009E-17, -1.000000000000000000 ) ) ;
#70 = CALENDAR_DATE ( 2021, 26, 11 ) ;
#71 = APPROVAL_DATE_TIME ( #146, #58 ) ;
#72 = DIRECTION ( 'NONE',  ( -3.491481338843133355E-15, 9.031770143711729009E-17, -1.000000000000000000 ) ) ;
#73 = PRODUCT ( '321316', '321316', '', ( #166 ) ) ;
#74 = AXIS2_PLACEMENT_3D ( 'NONE', #148, #72, #109 ) ;
#75 = CALENDAR_DATE ( 2021, 26, 11 ) ;
#76 = ORIENTED_EDGE ( 'NONE', *, *, #29, .T. ) ;
#77 = EDGE_LOOP ( 'NONE', ( #60 ) ) ;
#78 = AXIS2_PLACEMENT_3D ( 'NONE', #122, #141, #12 ) ;
#79 = PERSON_AND_ORGANIZATION ( #238, #215 ) ;
#80 = EDGE_LOOP ( 'NONE', ( #9 ) ) ;
#81 = AXIS2_PLACEMENT_3D ( 'NONE', #165, #139, #86 ) ;
#82 = DIRECTION ( 'NONE',  ( -1.609111059787416806E-30, 1.000000000000000000, -4.608677245058911029E-16 ) ) ;
#83 = DIRECTION ( 'NONE',  ( -3.491481338843133355E-15, -4.608677245058911029E-16, -1.000000000000000000 ) ) ;
#84 = FACE_OUTER_BOUND ( 'NONE', #130, .T. ) ;
#85 = CLOSED_SHELL ( 'NONE', ( #204, #198, #45, #22 ) ) ;
#86 = DIRECTION ( 'NONE',  ( -1.609111059787417157E-30, 1.000000000000000000, -4.608677245058911029E-16 ) ) ;
#87 = DIRECTION ( 'NONE',  ( -3.491481338843133355E-15, -4.608677245058911029E-16, -1.000000000000000000 ) ) ;
#88 = DIRECTION ( 'NONE',  ( 0.0000000000000000000, 0.0000000000000000000, 1.000000000000000000 ) ) ;
#89 = APPROVAL ( #115, 'UNSPECIFIED' ) ;
#90 = DATE_AND_TIME ( #18, #96 ) ;
#91 = CALENDAR_DATE ( 2021, 26, 11 ) ;
#92 = CARTESIAN_POINT ( 'NONE',  ( 2.779219145719134403E-13, 1.999999999999988010, 79.60000000000000853 ) ) ;
#93 = EDGE_CURVE ( 'NONE', #209, #209, #196, .T. ) ;
#94 = ADVANCED_BREP_SHAPE_REPRESENTATION ( '321316', ( #43, #213, #105 ), #158 ) ;
#95 = CARTESIAN_POINT ( 'NONE',  ( 2.793185071074506684E-13, 1.599999999999987876, 80.00000000000000000 ) ) ;
#96 = LOCAL_TIME ( 11, 2, 33.00000000000000000, #189 ) ;
#97 = PERSON_AND_ORGANIZATION ( #238, #215 ) ;
#98 = APPROVAL_DATE_TIME ( #132, #63 ) ;
#99 = AXIS2_PLACEMENT_3D ( 'NONE', #140, #235, #64 ) ;
#100 = CARTESIAN_POINT ( 'NONE',  ( 2.779219145719134403E-13, -7.189289034394536528E-15, 79.60000000000000853 ) ) ;
#101 = CC_DESIGN_APPROVAL ( #89, ( #36 ) ) ;
#102 = DIRECTION ( 'NONE',  ( -3.491481338843133355E-15, -4.608677245058911029E-16, -1.000000000000000000 ) ) ;
#103 = FACE_OUTER_BOUND ( 'NONE', #214, .T. ) ;
#104 = CARTESIAN_POINT ( 'NONE',  ( 4.885231259955590439E-14, -1.263712492114123682E-15, 13.99185842870425134 ) ) ;
#105 = AXIS2_PLACEMENT_3D ( 'NONE', #32, #88, #21 ) ;
#106 = CARTESIAN_POINT ( 'NONE',  ( 0.0000000000000000000, 0.0000000000000000000, 0.0000000000000000000 ) ) ;
#107 = COORDINATED_UNIVERSAL_TIME_OFFSET ( 1, 0, .AHEAD. ) ;
#108 = CC_DESIGN_PERSON_AND_ORGANIZATION_ASSIGNMENT ( #175, #6, ( #36 ) ) ;
#109 = DIRECTION ( 'NONE',  ( 3.153425691349006731E-31, 1.000000000000000000, 9.031770143711729009E-17 ) ) ;
#110 = APPROVAL_PERSON_ORGANIZATION ( #202, #58, #205 ) ;
#111 = VERTEX_POINT ( 'NONE', #207 ) ;
#112 =( NAMED_UNIT ( * ) SI_UNIT ( $, .STERADIAN. ) SOLID_ANGLE_UNIT ( ) );
#113 = AXIS2_PLACEMENT_3D ( 'NONE', #17, #217, #47 ) ;
#114 = ORIENTED_EDGE ( 'NONE', *, *, #186, .T. ) ;
#115 = APPROVAL_STATUS ( 'not_yet_approved' ) ;
#116 = ORIENTED_EDGE ( 'NONE', *, *, #181, .F. ) ;
#117 = AXIS2_PLACEMENT_3D ( 'NONE', #180, #218, #13 ) ;
#118 = CC_DESIGN_PERSON_AND_ORGANIZATION_ASSIGNMENT ( #2, #34, ( #190 ) ) ;
#119 = APPROVAL_ROLE ( '' ) ;
#120 = CARTESIAN_POINT ( 'NONE',  ( 2.779219145719134403E-13, -7.189289034394536528E-15, 79.60000000000000853 ) ) ;
#121 = CARTESIAN_POINT ( 'NONE',  ( 1.396592535537256300E-15, 1.843470898023568504E-16, 0.4000000000000009104 ) ) ;
#122 = CARTESIAN_POINT ( 'NONE',  ( 4.846527752291233461E-14, 6.397308191523072036E-15, 13.88100717701983022 ) ) ;
#123 = FACE_BOUND ( 'NONE', #61, .T. ) ;
#124 = DESIGN_CONTEXT ( 'detailed design', #135, 'design' ) ;
#125 = FACE_OUTER_BOUND ( 'NONE', #153, .T. ) ;
#126 = VERTEX_POINT ( 'NONE', #95 ) ;
#127 =( NAMED_UNIT ( * ) PLANE_ANGLE_UNIT ( ) SI_UNIT ( $, .RADIAN. ) );
#128 = PERSON_AND_ORGANIZATION ( #238, #215 ) ;
#129 = PRODUCT_DEFINITION ( 'UNKNOWN', '', #190, #124 ) ;
#130 = EDGE_LOOP ( 'NONE', ( #3 ) ) ;
#131 = CC_DESIGN_SECURITY_CLASSIFICATION ( #36, ( #190 ) ) ;
#132 = DATE_AND_TIME ( #91, #11 ) ;
#133 = EDGE_LOOP ( 'NONE', ( #151 ) ) ;
#134 = EDGE_CURVE ( 'NONE', #149, #149, #226, .T. ) ;
#135 = APPLICATION_CONTEXT ( 'configuration controlled 3d designs of mechanical parts and assemblies' ) ;
#136 = CONICAL_SURFACE ( 'NONE', #174, 1.999999999999995337, 0.7853981633974516097 ) ;
#137 = FACE_OUTER_BOUND ( 'NONE', #212, .T. ) ;
#138 = DIRECTION ( 'NONE',  ( -3.491481338843133355E-15, 9.031770143711729009E-17, -1.000000000000000000 ) ) ;
#139 = DIRECTION ( 'NONE',  ( -3.491481338843133355E-15, -4.608677245058911029E-16, -1.000000000000000000 ) ) ;
#140 = CARTESIAN_POINT ( 'NONE',  ( 4.846527752291232830E-14, -1.253700661860559328E-15, 13.88100717701982845 ) ) ;
#141 = DIRECTION ( 'NONE',  ( -3.491481338843133355E-15, -4.608677245058911029E-16, -1.000000000000000000 ) ) ;
#142 = PRODUCT_RELATED_PRODUCT_CATEGORY ( 'detail', '', ( #73 ) ) ;
#143 = FACE_OUTER_BOUND ( 'NONE', #228, .T. ) ;
#144 = APPLICATION_CONTEXT ( 'configuration controlled 3d designs of mechanical parts and assemblies' ) ;
#145 = CC_DESIGN_APPROVAL ( #63, ( #190 ) ) ;
#146 = DATE_AND_TIME ( #70, #222 ) ;
#147 = DATE_TIME_ROLE ( 'creation_date' ) ;
#148 = CARTESIAN_POINT ( 'NONE',  ( 4.846527752291233461E-14, 2.063999999999998280, 13.88100717701983022 ) ) ;
#149 = VERTEX_POINT ( 'NONE', #92 ) ;
#150 = ADVANCED_FACE ( 'NONE', ( #123, #26 ), #169, .T. ) ;
#151 = ORIENTED_EDGE ( 'NONE', *, *, #194, .T. ) ;
#152 = APPROVAL_DATE_TIME ( #8, #89 ) ;
#153 = EDGE_LOOP ( 'NONE', ( #229 ) ) ;
#154 = ADVANCED_FACE ( 'NONE', ( #14, #137 ), #27, .T. ) ;
#155 = DATE_TIME_ROLE ( 'classification_date' ) ;
#156 = ORIENTED_EDGE ( 'NONE', *, *, #93, .F. ) ;
#157 = EDGE_LOOP ( 'NONE', ( #76 ) ) ;
#158 =( GEOMETRIC_REPRESENTATION_CONTEXT ( 3 ) GLOBAL_UNCERTAINTY_ASSIGNED_CONTEXT ( ( #15 ) ) GLOBAL_UNIT_ASSIGNED_CONTEXT ( ( #55, #127, #112 ) ) REPRESENTATION_CONTEXT ( 'NONE', 'WORKASPACE' ) );
#159 = PLANE ( 'NONE',  #113 ) ;
#160 = CC_DESIGN_DATE_AND_TIME_ASSIGNMENT ( #173, #155, ( #36 ) ) ;
#161 = FACE_BOUND ( 'NONE', #133, .T. ) ;
#162 = CARTESIAN_POINT ( 'NONE',  ( 2.793185071074506684E-13, -7.225416114969383207E-15, 80.00000000000000000 ) ) ;
#163 = DIRECTION ( 'NONE',  ( -1.586279508458480175E-30, 1.000000000000000000, -4.727625752117027992E-16 ) ) ;
#164 = CC_DESIGN_PERSON_AND_ORGANIZATION_ASSIGNMENT ( #97, #210, ( #190 ) ) ;
#165 = CARTESIAN_POINT ( 'NONE',  ( 2.949596945991519873E-30, 3.893401971207590790E-31, 8.447981414584442478E-16 ) ) ;
#166 = MECHANICAL_CONTEXT ( 'NONE', #144, 'mechanical' ) ;
#167 = CARTESIAN_POINT ( 'NONE',  ( 4.885231259955590439E-14, 1.999999999999990452, 13.99185842870425134 ) ) ;
#168 = CARTESIAN_POINT ( 'NONE',  ( 0.0000000000000000000, 1.833059892324148787, 0.0000000000000000000 ) ) ;
#169 = CONICAL_SURFACE ( 'NONE', #1, 2.063999999999999613, 0.5235987755982899339 ) ;
#170 = SECURITY_CLASSIFICATION_LEVEL ( 'unclassified' ) ;
#171 = COORDINATED_UNIVERSAL_TIME_OFFSET ( 1, 0, .AHEAD. ) ;
#172 = ORIENTED_EDGE ( 'NONE', *, *, #194, .F. ) ;
#173 = DATE_AND_TIME ( #75, #240 ) ;
#174 = AXIS2_PLACEMENT_3D ( 'NONE', #100, #69, #176 ) ;
#175 = PERSON_AND_ORGANIZATION ( #238, #215 ) ;
#176 = DIRECTION ( 'NONE',  ( 0.0000000000000000000, 1.000000000000000000, 0.0000000000000000000 ) ) ;
#177 = APPROVAL_PERSON_ORGANIZATION ( #79, #89, #119 ) ;
#178 = ADVANCED_FACE ( 'NONE', ( #161, #84 ), #136, .T. ) ;
#179 = DIRECTION ( 'NONE',  ( 3.491481338843133355E-15, 4.608677245058911029E-16, 1.000000000000000000 ) ) ;
#180 = CARTESIAN_POINT ( 'NONE',  ( 0.0000000000000000000, 0.0000000000000000000, 0.0000000000000000000 ) ) ;
#181 = EDGE_CURVE ( 'NONE', #203, #203, #236, .T. ) ;
#182 = DIRECTION ( 'NONE',  ( -3.491481338843133355E-15, 9.031770143711729009E-17, -1.000000000000000000 ) ) ;
#183 = AXIS2_PLACEMENT_3D ( 'NONE', #120, #25, #48 ) ;
#184 = FACE_OUTER_BOUND ( 'NONE', #7, .T. ) ;
#185 = PLANE ( 'NONE',  #74 ) ;
#186 = EDGE_CURVE ( 'NONE', #239, #239, #23, .T. ) ;
#187 = AXIS2_PLACEMENT_3D ( 'NONE', #121, #83, #163 ) ;
#188 = PERSON_AND_ORGANIZATION ( #238, #215 ) ;
#189 = COORDINATED_UNIVERSAL_TIME_OFFSET ( 1, 0, .AHEAD. ) ;
#190 = PRODUCT_DEFINITION_FORMATION_WITH_SPECIFIED_SOURCE ( 'ANY', '', #73, .NOT_KNOWN. ) ;
#191 = EDGE_LOOP ( 'NONE', ( #156 ) ) ;
#192 = ORIENTED_EDGE ( 'NONE', *, *, #93, .T. ) ;
#193 = PLANE ( 'NONE',  #40 ) ;
#194 = EDGE_CURVE ( 'NONE', #126, #126, #62, .T. ) ;
#195 = DIRECTION ( 'NONE',  ( 3.491481338843133355E-15, -9.031770143711729009E-17, 1.000000000000000000 ) ) ;
#196 = CIRCLE ( 'NONE', #99, 2.063999999999999613 ) ;
#197 = CARTESIAN_POINT ( 'NONE',  ( 4.846527752291232830E-14, -1.253700661860559328E-15, 13.88100717701982845 ) ) ;
#198 = ADVANCED_FACE ( 'NONE', ( #237, #125 ), #200, .T. ) ;
#199 = PLANE ( 'NONE',  #56 ) ;
#200 = CYLINDRICAL_SURFACE ( 'NONE', #201, 2.063999999999995172 ) ;
#201 = AXIS2_PLACEMENT_3D ( 'NONE', #106, #102, #82 ) ;
#202 = PERSON_AND_ORGANIZATION ( #238, #215 ) ;
#203 = VERTEX_POINT ( 'NONE', #33 ) ;
#204 = ADVANCED_FACE ( 'NONE', ( #184 ), #159, .T. ) ;
#205 = APPROVAL_ROLE ( '' ) ;
#206 = AXIS2_PLACEMENT_3D ( 'NONE', #234, #179, #30 ) ;
#207 = CARTESIAN_POINT ( 'NONE',  ( 1.396592535537253145E-15, 2.063999999999998725, 0.3999999999999999112 ) ) ;
#208 = ADVANCED_FACE ( 'NONE', ( #143 ), #185, .T. ) ;
#209 = VERTEX_POINT ( 'NONE', #53 ) ;
#210 = PERSON_AND_ORGANIZATION_ROLE ( 'creator' ) ;
#211 = LOCAL_TIME ( 11, 2, 33.00000000000000000, #4 ) ;
#212 = EDGE_LOOP ( 'NONE', ( #38 ) ) ;
#213 = MANIFOLD_SOLID_BREP ( 'Corps-Déplacer/Copier1[2]', #85 ) ;
#214 = EDGE_LOOP ( 'NONE', ( #172 ) ) ;
#215 = ORGANIZATION ( 'UNSPECIFIED', 'UNSPECIFIED', '' ) ;
#216 = FACE_BOUND ( 'NONE', #37, .T. ) ;
#217 = DIRECTION ( 'NONE',  ( 3.491481338843133355E-15, 4.608677245058911029E-16, 1.000000000000000000 ) ) ;
#218 = DIRECTION ( 'NONE',  ( -3.491481338843133355E-15, 9.031770143711729009E-17, -1.000000000000000000 ) ) ;
#219 = AXIS2_PLACEMENT_3D ( 'NONE', #104, #182, #50 ) ;
#220 = DIRECTION ( 'NONE',  ( -1.609111059787417157E-30, 1.000000000000000000, -4.608677245058911029E-16 ) ) ;
#221 = DIRECTION ( 'NONE',  ( -3.153425691349006731E-31, -1.000000000000000000, -9.031770143711729009E-17 ) ) ;
#222 = LOCAL_TIME ( 11, 2, 33.00000000000000000, #107 ) ;
#223 = PERSON_AND_ORGANIZATION_ROLE ( 'creator' ) ;
#224 = APPROVAL_STATUS ( 'not_yet_approved' ) ;
#225 = VERTEX_POINT ( 'NONE', #168 ) ;
#226 = CIRCLE ( 'NONE', #183, 1.999999999999995337 ) ;
#227 = PERSON_AND_ORGANIZATION ( #238, #215 ) ;
#228 = EDGE_LOOP ( 'NONE', ( #192 ) ) ;
#229 = ORIENTED_EDGE ( 'NONE', *, *, #29, .F. ) ;
#230 = SHAPE_DEFINITION_REPRESENTATION ( #242, #94 ) ;
#231 = CC_DESIGN_PERSON_AND_ORGANIZATION_ASSIGNMENT ( #128, #223, ( #129 ) ) ;
#232 = CIRCLE ( 'NONE', #81, 1.833059892324148787 ) ;
#233 = DIRECTION ( 'NONE',  ( -3.491481338843133355E-15, 9.031770143711729009E-17, -1.000000000000000000 ) ) ;
#234 = CARTESIAN_POINT ( 'NONE',  ( 2.949596945991519873E-30, 3.893401971207590790E-31, 8.447981414584442478E-16 ) ) ;
#235 = DIRECTION ( 'NONE',  ( -3.491481338843133355E-15, 9.031770143711729009E-17, -1.000000000000000000 ) ) ;
#236 = CIRCLE ( 'NONE', #78, 2.063999999999991619 ) ;
#237 = FACE_OUTER_BOUND ( 'NONE', #24, .T. ) ;
#238 = PERSON ( 'UNSPECIFIED', 'UNSPECIFIED', 'UNSPECIFIED', ('UNSPECIFIED'), ('UNSPECIFIED'), ('UNSPECIFIED') ) ;
#239 = VERTEX_POINT ( 'NONE', #167 ) ;
#240 = LOCAL_TIME ( 11, 2, 33.00000000000000000, #171 ) ;
#241 = APPLICATION_PROTOCOL_DEFINITION ( 'international standard', 'config_control_design', 1994, #135 ) ;
#242 = PRODUCT_DEFINITION_SHAPE ( 'NONE', 'NONE',  #129 ) ;
#243 = AXIS2_PLACEMENT_3D ( 'NONE', #162, #138, #16 ) ;
ENDSEC;
END-ISO-10303-21;
