ISO-10303-21;
HEADER;
FILE_DESCRIPTION (( 'STEP AP203' ),
    '1' );
FILE_NAME ('321315.step',
    '2021-11-26T10:02:33',
    ( '' ),
    ( '' ),
    'SwSTEP 2.0',
    'SolidWorks 2019',
    '' );
FILE_SCHEMA (( 'CONFIG_CONTROL_DESIGN' ));
ENDSEC;

DATA;
#1 = EDGE_CURVE ( 'NONE', #162, #162, #139, .T. ) ;
#2 = FACE_OUTER_BOUND ( 'NONE', #145, .T. ) ;
#3 = CARTESIAN_POINT ( 'NONE',  ( 4.849551463827510965E-14, 2.058999999999998387, 13.88966743105767421 ) ) ;
#4 = DATE_AND_TIME ( #163, #201 ) ;
#5 = ORIENTED_EDGE ( 'NONE', *, *, #173, .F. ) ;
#6 = PERSON_AND_ORGANIZATION_ROLE ( 'design_owner' ) ;
#7 = CC_DESIGN_PERSON_AND_ORGANIZATION_ASSIGNMENT ( #90, #134, ( #135 ) ) ;
#8 = CARTESIAN_POINT ( 'NONE',  ( 1.396592535537256300E-15, 1.841710630665159960E-16, 0.4000000000000008549 ) ) ;
#9 = PLANE ( 'NONE',  #127 ) ;
#10 = DIRECTION ( 'NONE',  ( 3.491481338843133355E-15, 4.604276576662890163E-16, 1.000000000000000000 ) ) ;
#11 = ADVANCED_BREP_SHAPE_REPRESENTATION ( '321315', ( #23, #25, #192 ), #101 ) ;
#12 = PERSON_AND_ORGANIZATION ( #45, #161 ) ;
#13 = SECURITY_CLASSIFICATION ( '', '', #209 ) ;
#14 = FACE_OUTER_BOUND ( 'NONE', #243, .T. ) ;
#15 = AXIS2_PLACEMENT_3D ( 'NONE', #60, #10, #78 ) ;
#16 = DIRECTION ( 'NONE',  ( 3.491481338843133355E-15, -9.031770143711729009E-17, 1.000000000000000000 ) ) ;
#17 = DIRECTION ( 'NONE',  ( -3.491481338843133355E-15, 9.031770143711729009E-17, -1.000000000000000000 ) ) ;
#18 = EDGE_LOOP ( 'NONE', ( #103 ) ) ;
#19 = APPROVAL_DATE_TIME ( #71, #128 ) ;
#20 = VERTEX_POINT ( 'NONE', #97 ) ;
#21 = ORIENTED_EDGE ( 'NONE', *, *, #1, .T. ) ;
#22 = CARTESIAN_POINT ( 'NONE',  ( 4.849551463827510965E-14, 2.058999999999998387, 13.88966743105767421 ) ) ;
#23 = MANIFOLD_SOLID_BREP ( 'Corps-Déplacer/Copier1[1]', #148 ) ;
#24 =( NAMED_UNIT ( * ) SI_UNIT ( $, .STERADIAN. ) SOLID_ANGLE_UNIT ( ) );
#25 = MANIFOLD_SOLID_BREP ( 'Corps-Déplacer/Copier1[2]', #73 ) ;
#26 = APPROVAL_DATE_TIME ( #236, #59 ) ;
#27 = DIRECTION ( 'NONE',  ( 3.153425691349006731E-31, 1.000000000000000000, 9.031770143711729009E-17 ) ) ;
#28 = APPLICATION_CONTEXT ( 'configuration controlled 3d designs of mechanical parts and assemblies' ) ;
#29 = ADVANCED_FACE ( 'NONE', ( #91, #147 ), #56, .T. ) ;
#30 = CYLINDRICAL_SURFACE ( 'NONE', #225, 1.999999999999993561 ) ;
#31 = DIRECTION ( 'NONE',  ( 3.491481338843133355E-15, 4.604276576662890163E-16, 1.000000000000000000 ) ) ;
#32 = ADVANCED_FACE ( 'NONE', ( #174, #198 ), #176, .T. ) ;
#33 = CARTESIAN_POINT ( 'NONE',  ( 2.938742603799515635E-30, 3.875370486728337559E-31, 8.416893342964960116E-16 ) ) ;
#34 = EDGE_LOOP ( 'NONE', ( #133 ) ) ;
#35 = COORDINATED_UNIVERSAL_TIME_OFFSET ( 1, 0, .AHEAD. ) ;
#36 = CC_DESIGN_SECURITY_CLASSIFICATION ( #13, ( #96 ) ) ;
#37 = PERSON_AND_ORGANIZATION ( #45, #161 ) ;
#38 = PERSON_AND_ORGANIZATION_ROLE ( 'design_supplier' ) ;
#39 = CARTESIAN_POINT ( 'NONE',  ( 0.0000000000000000000, 0.0000000000000000000, 0.0000000000000000000 ) ) ;
#40 = DIRECTION ( 'NONE',  ( -3.491481338843133355E-15, 9.031770143711729009E-17, -1.000000000000000000 ) ) ;
#41 = ADVANCED_FACE ( 'NONE', ( #14 ), #9, .T. ) ;
#42 = CC_DESIGN_DATE_AND_TIME_ASSIGNMENT ( #61, #102, ( #13 ) ) ;
#43 = EDGE_CURVE ( 'NONE', #229, #229, #132, .T. ) ;
#44 = AXIS2_PLACEMENT_3D ( 'NONE', #184, #219, #200 ) ;
#45 = PERSON ( 'UNSPECIFIED', 'UNSPECIFIED', 'UNSPECIFIED', ('UNSPECIFIED'), ('UNSPECIFIED'), ('UNSPECIFIED') ) ;
#46 = PRODUCT_DEFINITION_SHAPE ( 'NONE', 'NONE',  #135 ) ;
#47 = ADVANCED_FACE ( 'NONE', ( #115, #123 ), #30, .T. ) ;
#48 = CARTESIAN_POINT ( 'NONE',  ( 2.793185071074506684E-13, -7.225416114969383207E-15, 80.00000000000000000 ) ) ;
#49 = CARTESIAN_POINT ( 'NONE',  ( 0.0000000000000000000, 0.0000000000000000000, 0.0000000000000000000 ) ) ;
#50 = EDGE_LOOP ( 'NONE', ( #89 ) ) ;
#51 = APPROVAL_ROLE ( '' ) ;
#52 = ADVANCED_FACE ( 'NONE', ( #75, #172 ), #180, .T. ) ;
#53 = CALENDAR_DATE ( 2021, 26, 11 ) ;
#54 = CARTESIAN_POINT ( 'NONE',  ( 2.779219145719134403E-13, 1.999999999999988010, 79.60000000000000853 ) ) ;
#55 = CC_DESIGN_APPROVAL ( #128, ( #135 ) ) ;
#56 = CYLINDRICAL_SURFACE ( 'NONE', #191, 2.058999999999994834 ) ;
#57 = CALENDAR_DATE ( 2021, 26, 11 ) ;
#58 = DIRECTION ( 'NONE',  ( -3.491481338843133355E-15, 9.031770143711729009E-17, -1.000000000000000000 ) ) ;
#59 = APPROVAL ( #121, 'UNSPECIFIED' ) ;
#60 = CARTESIAN_POINT ( 'NONE',  ( 2.938742603799515635E-30, 3.875370486728337559E-31, 8.416893342964960116E-16 ) ) ;
#61 = DATE_AND_TIME ( #234, #83 ) ;
#62 = DIRECTION ( 'NONE',  ( 3.153425691349006731E-31, 1.000000000000000000, 9.031770143711729009E-17 ) ) ;
#63 = CARTESIAN_POINT ( 'NONE',  ( 4.849551463827510965E-14, -1.254482836099118821E-15, 13.88966743105767421 ) ) ;
#64 = DIRECTION ( 'NONE',  ( -3.491481338843133355E-15, 9.031770143711729009E-17, -1.000000000000000000 ) ) ;
#65 = CIRCLE ( 'NONE', #189, 1.828059892324148006 ) ;
#66 = APPROVAL_PERSON_ORGANIZATION ( #67, #128, #131 ) ;
#67 = PERSON_AND_ORGANIZATION ( #45, #161 ) ;
#68 = PERSON_AND_ORGANIZATION ( #45, #161 ) ;
#69 = ORIENTED_EDGE ( 'NONE', *, *, #92, .F. ) ;
#70 = CIRCLE ( 'NONE', #232, 1.599999999999994982 ) ;
#71 = DATE_AND_TIME ( #53, #140 ) ;
#72 = DIRECTION ( 'NONE',  ( 1.000000000000000000, 0.0000000000000000000, 0.0000000000000000000 ) ) ;
#73 = CLOSED_SHELL ( 'NONE', ( #85, #29, #52, #208 ) ) ;
#74 = LOCAL_TIME ( 11, 2, 33.00000000000000000, #233 ) ;
#75 = FACE_OUTER_BOUND ( 'NONE', #164, .T. ) ;
#76 = FACE_OUTER_BOUND ( 'NONE', #195, .T. ) ;
#77 = EDGE_LOOP ( 'NONE', ( #221 ) ) ;
#78 = DIRECTION ( 'NONE',  ( 1.607574574629102882E-30, -1.000000000000000000, 4.604276576662890163E-16 ) ) ;
#79 = DESIGN_CONTEXT ( 'detailed design', #100, 'design' ) ;
#80 = APPROVAL_PERSON_ORGANIZATION ( #193, #59, #190 ) ;
#81 = DIRECTION ( 'NONE',  ( -3.491481338843133355E-15, -4.604276576662890163E-16, -1.000000000000000000 ) ) ;
#82 = AXIS2_PLACEMENT_3D ( 'NONE', #177, #117, #211 ) ;
#83 = LOCAL_TIME ( 11, 2, 33.00000000000000000, #239 ) ;
#84 = DIRECTION ( 'NONE',  ( -3.153425691349006731E-31, -1.000000000000000000, -9.031770143711729009E-17 ) ) ;
#85 = ADVANCED_FACE ( 'NONE', ( #76 ), #119, .T. ) ;
#86 = DIRECTION ( 'NONE',  ( 0.0000000000000000000, 1.000000000000000000, 0.0000000000000000000 ) ) ;
#87 = AXIS2_PLACEMENT_3D ( 'NONE', #238, #31, #179 ) ;
#88 = VERTEX_POINT ( 'NONE', #54 ) ;
#89 = ORIENTED_EDGE ( 'NONE', *, *, #187, .T. ) ;
#90 = PERSON_AND_ORGANIZATION ( #45, #161 ) ;
#91 = FACE_OUTER_BOUND ( 'NONE', #227, .T. ) ;
#92 = EDGE_CURVE ( 'NONE', #20, #20, #65, .T. ) ;
#93 = EDGE_LOOP ( 'NONE', ( #178 ) ) ;
#94 = VERTEX_POINT ( 'NONE', #3 ) ;
#95 = DIRECTION ( 'NONE',  ( -3.491481338843133355E-15, -4.604276576662890163E-16, -1.000000000000000000 ) ) ;
#96 = PRODUCT_DEFINITION_FORMATION_WITH_SPECIFIED_SOURCE ( 'ANY', '', #126, .NOT_KNOWN. ) ;
#97 = CARTESIAN_POINT ( 'NONE',  ( 3.421138828918010427E-46, 1.828059892324148006, 0.0000000000000000000 ) ) ;
#98 = ORIENTED_EDGE ( 'NONE', *, *, #92, .T. ) ;
#99 = SHAPE_DEFINITION_REPRESENTATION ( #46, #11 ) ;
#100 = APPLICATION_CONTEXT ( 'configuration controlled 3d designs of mechanical parts and assemblies' ) ;
#101 =( GEOMETRIC_REPRESENTATION_CONTEXT ( 3 ) GLOBAL_UNCERTAINTY_ASSIGNED_CONTEXT ( ( #175 ) ) GLOBAL_UNIT_ASSIGNED_CONTEXT ( ( #165, #168, #24 ) ) REPRESENTATION_CONTEXT ( 'NONE', 'WORKASPACE' ) );
#102 = DATE_TIME_ROLE ( 'classification_date' ) ;
#103 = ORIENTED_EDGE ( 'NONE', *, *, #112, .F. ) ;
#104 = CC_DESIGN_PERSON_AND_ORGANIZATION_ASSIGNMENT ( #12, #38, ( #96 ) ) ;
#105 = DIRECTION ( 'NONE',  ( 0.0000000000000000000, 1.000000000000000000, 0.0000000000000000000 ) ) ;
#106 = DIRECTION ( 'NONE',  ( 0.0000000000000000000, 1.000000000000000000, 0.0000000000000000000 ) ) ;
#107 = DIRECTION ( 'NONE',  ( -3.491481338843133355E-15, -4.604276576662890163E-16, -1.000000000000000000 ) ) ;
#108 = CC_DESIGN_PERSON_AND_ORGANIZATION_ASSIGNMENT ( #118, #114, ( #96 ) ) ;
#109 = AXIS2_PLACEMENT_3D ( 'NONE', #137, #194, #213 ) ;
#110 = CALENDAR_DATE ( 2021, 26, 11 ) ;
#111 = CARTESIAN_POINT ( 'NONE',  ( 4.885231259955590439E-14, 1.999999999999990452, 13.99185842870425134 ) ) ;
#112 = EDGE_CURVE ( 'NONE', #231, #231, #70, .T. ) ;
#113 = APPLICATION_PROTOCOL_DEFINITION ( 'international standard', 'config_control_design', 1994, #100 ) ;
#114 = PERSON_AND_ORGANIZATION_ROLE ( 'creator' ) ;
#115 = FACE_OUTER_BOUND ( 'NONE', #156, .T. ) ;
#116 = PERSON_AND_ORGANIZATION ( #45, #161 ) ;
#117 = DIRECTION ( 'NONE',  ( -3.491481338843133355E-15, 9.031770143711729009E-17, -1.000000000000000000 ) ) ;
#118 = PERSON_AND_ORGANIZATION ( #45, #161 ) ;
#119 = PLANE ( 'NONE',  #87 ) ;
#120 = EDGE_CURVE ( 'NONE', #88, #88, #218, .T. ) ;
#121 = APPROVAL_STATUS ( 'not_yet_approved' ) ;
#122 = CIRCLE ( 'NONE', #185, 2.058999999999999719 ) ;
#123 = FACE_OUTER_BOUND ( 'NONE', #77, .T. ) ;
#124 = DIRECTION ( 'NONE',  ( -3.491481338843133355E-15, 9.031770143711729009E-17, -1.000000000000000000 ) ) ;
#125 = CARTESIAN_POINT ( 'NONE',  ( 2.779219145719134403E-13, -7.189289034394536528E-15, 79.60000000000000853 ) ) ;
#126 = PRODUCT ( '321315', '321315', '', ( #230 ) ) ;
#127 = AXIS2_PLACEMENT_3D ( 'NONE', #240, #40, #62 ) ;
#128 = APPROVAL ( #222, 'UNSPECIFIED' ) ;
#129 = FACE_OUTER_BOUND ( 'NONE', #143, .T. ) ;
#130 = PRODUCT_RELATED_PRODUCT_CATEGORY ( 'detail', '', ( #126 ) ) ;
#131 = APPROVAL_ROLE ( '' ) ;
#132 = CIRCLE ( 'NONE', #109, 2.058999999999991726 ) ;
#133 = ORIENTED_EDGE ( 'NONE', *, *, #120, .F. ) ;
#134 = PERSON_AND_ORGANIZATION_ROLE ( 'creator' ) ;
#135 = PRODUCT_DEFINITION ( 'UNKNOWN', '', #96, #79 ) ;
#136 = DIRECTION ( 'NONE',  ( 0.0000000000000000000, 0.0000000000000000000, 1.000000000000000000 ) ) ;
#137 = CARTESIAN_POINT ( 'NONE',  ( 4.849551463827511597E-14, 6.395187041045627470E-15, 13.88966743105767598 ) ) ;
#138 = AXIS2_PLACEMENT_3D ( 'NONE', #48, #16, #84 ) ;
#139 = CIRCLE ( 'NONE', #170, 2.058999999999997943 ) ;
#140 = LOCAL_TIME ( 11, 2, 33.00000000000000000, #202 ) ;
#141 = CC_DESIGN_APPROVAL ( #151, ( #96 ) ) ;
#142 = PLANE ( 'NONE',  #226 ) ;
#143 = EDGE_LOOP ( 'NONE', ( #5 ) ) ;
#144 = EDGE_LOOP ( 'NONE', ( #69 ) ) ;
#145 = EDGE_LOOP ( 'NONE', ( #98 ) ) ;
#146 = APPROVAL_STATUS ( 'not_yet_approved' ) ;
#147 = FACE_OUTER_BOUND ( 'NONE', #220, .T. ) ;
#148 = CLOSED_SHELL ( 'NONE', ( #228, #32, #47, #152, #41 ) ) ;
#149 = ORIENTED_EDGE ( 'NONE', *, *, #43, .T. ) ;
#150 = DATE_TIME_ROLE ( 'creation_date' ) ;
#151 = APPROVAL ( #146, 'UNSPECIFIED' ) ;
#152 = ADVANCED_FACE ( 'NONE', ( #241, #129 ), #153, .T. ) ;
#153 = CONICAL_SURFACE ( 'NONE', #44, 2.058999999999999719, 0.5235987755982940417 ) ;
#154 = DIRECTION ( 'NONE',  ( -3.491481338843133355E-15, -4.604276576662890163E-16, -1.000000000000000000 ) ) ;
#155 = APPROVAL_DATE_TIME ( #186, #151 ) ;
#156 = EDGE_LOOP ( 'NONE', ( #183 ) ) ;
#157 = DIRECTION ( 'NONE',  ( -3.491481338843133355E-15, 9.031770143711729009E-17, -1.000000000000000000 ) ) ;
#158 = DIRECTION ( 'NONE',  ( -1.607574574629102532E-30, 1.000000000000000000, -4.604276576662890163E-16 ) ) ;
#159 = CARTESIAN_POINT ( 'NONE',  ( 2.793185071074506684E-13, -7.225416114969383207E-15, 80.00000000000000000 ) ) ;
#160 = DIRECTION ( 'NONE',  ( -1.607574574629102532E-30, 1.000000000000000000, -4.604276576662890163E-16 ) ) ;
#161 = ORGANIZATION ( 'UNSPECIFIED', 'UNSPECIFIED', '' ) ;
#162 = VERTEX_POINT ( 'NONE', #205 ) ;
#163 = CALENDAR_DATE ( 2021, 26, 11 ) ;
#164 = EDGE_LOOP ( 'NONE', ( #21 ) ) ;
#165 =( LENGTH_UNIT ( ) NAMED_UNIT ( * ) SI_UNIT ( .MILLI., .METRE. ) );
#166 = ORIENTED_EDGE ( 'NONE', *, *, #43, .F. ) ;
#167 = CIRCLE ( 'NONE', #203, 1.999999999999991784 ) ;
#168 =( NAMED_UNIT ( * ) PLANE_ANGLE_UNIT ( ) SI_UNIT ( $, .RADIAN. ) );
#169 = CC_DESIGN_PERSON_AND_ORGANIZATION_ASSIGNMENT ( #116, #212, ( #13 ) ) ;
#170 = AXIS2_PLACEMENT_3D ( 'NONE', #8, #95, #188 ) ;
#171 = CARTESIAN_POINT ( 'NONE',  ( 0.0000000000000000000, 0.0000000000000000000, 0.0000000000000000000 ) ) ;
#172 = FACE_BOUND ( 'NONE', #144, .T. ) ;
#173 = EDGE_CURVE ( 'NONE', #94, #94, #122, .T. ) ;
#174 = FACE_BOUND ( 'NONE', #93, .T. ) ;
#175 = UNCERTAINTY_MEASURE_WITH_UNIT (LENGTH_MEASURE( 1.000000000000000082E-05 ), #165, 'distance_accuracy_value', 'NONE');
#176 = CONICAL_SURFACE ( 'NONE', #82, 1.999999999999995337, 0.7853981633974516097 ) ;
#177 = CARTESIAN_POINT ( 'NONE',  ( 2.779219145719134403E-13, -7.189289034394536528E-15, 79.60000000000000853 ) ) ;
#178 = ORIENTED_EDGE ( 'NONE', *, *, #112, .T. ) ;
#179 = DIRECTION ( 'NONE',  ( 1.607574574629102532E-30, -1.000000000000000000, 4.604276576662890163E-16 ) ) ;
#180 = CONICAL_SURFACE ( 'NONE', #15, 1.828059892324148006, 0.5235987755982979275 ) ;
#181 = CARTESIAN_POINT ( 'NONE',  ( 4.885231259955590439E-14, -1.263712492114123682E-15, 13.99185842870425134 ) ) ;
#182 = LOCAL_TIME ( 11, 2, 33.00000000000000000, #35 ) ;
#183 = ORIENTED_EDGE ( 'NONE', *, *, #120, .T. ) ;
#184 = CARTESIAN_POINT ( 'NONE',  ( 4.849551463827510965E-14, -1.254482836099118821E-15, 13.88966743105767421 ) ) ;
#185 = AXIS2_PLACEMENT_3D ( 'NONE', #63, #157, #215 ) ;
#186 = DATE_AND_TIME ( #110, #182 ) ;
#187 = EDGE_CURVE ( 'NONE', #204, #204, #167, .T. ) ;
#188 = DIRECTION ( 'NONE',  ( -1.590131571373630153E-30, 1.000000000000000000, -4.475822470192713762E-16 ) ) ;
#189 = AXIS2_PLACEMENT_3D ( 'NONE', #33, #107, #160 ) ;
#190 = APPROVAL_ROLE ( '' ) ;
#191 = AXIS2_PLACEMENT_3D ( 'NONE', #171, #154, #210 ) ;
#192 = AXIS2_PLACEMENT_3D ( 'NONE', #49, #136, #72 ) ;
#193 = PERSON_AND_ORGANIZATION ( #45, #161 ) ;
#194 = DIRECTION ( 'NONE',  ( -3.491481338843133355E-15, -4.604276576662890163E-16, -1.000000000000000000 ) ) ;
#195 = EDGE_LOOP ( 'NONE', ( #166 ) ) ;
#196 = CC_DESIGN_DATE_AND_TIME_ASSIGNMENT ( #4, #150, ( #135 ) ) ;
#197 = ORIENTED_EDGE ( 'NONE', *, *, #173, .T. ) ;
#198 = FACE_OUTER_BOUND ( 'NONE', #34, .T. ) ;
#199 = CARTESIAN_POINT ( 'NONE',  ( -1.469371301899757818E-30, 1.828059892324148006, -4.208446671482480058E-16 ) ) ;
#200 = DIRECTION ( 'NONE',  ( 0.0000000000000000000, 1.000000000000000000, 0.0000000000000000000 ) ) ;
#201 = LOCAL_TIME ( 11, 2, 33.00000000000000000, #224 ) ;
#202 = COORDINATED_UNIVERSAL_TIME_OFFSET ( 1, 0, .AHEAD. ) ;
#203 = AXIS2_PLACEMENT_3D ( 'NONE', #181, #124, #86 ) ;
#204 = VERTEX_POINT ( 'NONE', #111 ) ;
#205 = CARTESIAN_POINT ( 'NONE',  ( 1.396592535537252948E-15, 2.058999999999997943, 0.3999999999999999112 ) ) ;
#206 = CARTESIAN_POINT ( 'NONE',  ( 2.793185071074506684E-13, 1.599999999999987876, 80.00000000000000000 ) ) ;
#207 = APPLICATION_PROTOCOL_DEFINITION ( 'international standard', 'config_control_design', 1994, #28 ) ;
#208 = ADVANCED_FACE ( 'NONE', ( #2 ), #142, .T. ) ;
#209 = SECURITY_CLASSIFICATION_LEVEL ( 'unclassified' ) ;
#210 = DIRECTION ( 'NONE',  ( -1.607574574629102532E-30, 1.000000000000000000, -4.604276576662891149E-16 ) ) ;
#211 = DIRECTION ( 'NONE',  ( 0.0000000000000000000, 1.000000000000000000, 0.0000000000000000000 ) ) ;
#212 = PERSON_AND_ORGANIZATION_ROLE ( 'classification_officer' ) ;
#213 = DIRECTION ( 'NONE',  ( -2.993188840232724484E-30, 1.000000000000000000, -8.425077590951015669E-16 ) ) ;
#214 = CC_DESIGN_APPROVAL ( #59, ( #13 ) ) ;
#215 = DIRECTION ( 'NONE',  ( 0.0000000000000000000, 1.000000000000000000, 0.0000000000000000000 ) ) ;
#216 = PLANE ( 'NONE',  #138 ) ;
#217 = AXIS2_PLACEMENT_3D ( 'NONE', #125, #17, #105 ) ;
#218 = CIRCLE ( 'NONE', #217, 1.999999999999995337 ) ;
#219 = DIRECTION ( 'NONE',  ( -3.491481338843133355E-15, 9.031770143711729009E-17, -1.000000000000000000 ) ) ;
#220 = EDGE_LOOP ( 'NONE', ( #223 ) ) ;
#221 = ORIENTED_EDGE ( 'NONE', *, *, #187, .F. ) ;
#222 = APPROVAL_STATUS ( 'not_yet_approved' ) ;
#223 = ORIENTED_EDGE ( 'NONE', *, *, #1, .F. ) ;
#224 = COORDINATED_UNIVERSAL_TIME_OFFSET ( 1, 0, .AHEAD. ) ;
#225 = AXIS2_PLACEMENT_3D ( 'NONE', #39, #58, #27 ) ;
#226 = AXIS2_PLACEMENT_3D ( 'NONE', #199, #81, #158 ) ;
#227 = EDGE_LOOP ( 'NONE', ( #149 ) ) ;
#228 = ADVANCED_FACE ( 'NONE', ( #242 ), #216, .T. ) ;
#229 = VERTEX_POINT ( 'NONE', #22 ) ;
#230 = MECHANICAL_CONTEXT ( 'NONE', #28, 'mechanical' ) ;
#231 = VERTEX_POINT ( 'NONE', #206 ) ;
#232 = AXIS2_PLACEMENT_3D ( 'NONE', #159, #64, #106 ) ;
#233 = COORDINATED_UNIVERSAL_TIME_OFFSET ( 1, 0, .AHEAD. ) ;
#234 = CALENDAR_DATE ( 2021, 26, 11 ) ;
#235 = APPROVAL_PERSON_ORGANIZATION ( #68, #151, #51 ) ;
#236 = DATE_AND_TIME ( #57, #74 ) ;
#237 = CC_DESIGN_PERSON_AND_ORGANIZATION_ASSIGNMENT ( #37, #6, ( #126 ) ) ;
#238 = CARTESIAN_POINT ( 'NONE',  ( 4.849551463827510334E-14, 6.395187041045624314E-15, 13.88966743105767243 ) ) ;
#239 = COORDINATED_UNIVERSAL_TIME_OFFSET ( 1, 0, .AHEAD. ) ;
#240 = CARTESIAN_POINT ( 'NONE',  ( 4.849551463827510334E-14, 2.058999999999998387, 13.88966743105767243 ) ) ;
#241 = FACE_BOUND ( 'NONE', #50, .T. ) ;
#242 = FACE_OUTER_BOUND ( 'NONE', #18, .T. ) ;
#243 = EDGE_LOOP ( 'NONE', ( #197 ) ) ;
ENDSEC;
END-ISO-10303-21;
