ISO-10303-21;
HEADER;
FILE_DESCRIPTION (( 'STEP AP203' ),
    '1' );
FILE_NAME ('321314.step',
    '2021-11-26T10:02:32',
    ( '' ),
    ( '' ),
    'SwSTEP 2.0',
    'SolidWorks 2019',
    '' );
FILE_SCHEMA (( 'CONFIG_CONTROL_DESIGN' ));
ENDSEC;

DATA;
#1 = CIRCLE ( 'NONE', #199, 1.599999999999994982 ) ;
#2 = EDGE_LOOP ( 'NONE', ( #77 ) ) ;
#3 = APPROVAL ( #116, 'UNSPECIFIED' ) ;
#4 = PERSON_AND_ORGANIZATION_ROLE ( 'creator' ) ;
#5 = CC_DESIGN_PERSON_AND_ORGANIZATION_ASSIGNMENT ( #123, #52, ( #159 ) ) ;
#6 = AXIS2_PLACEMENT_3D ( 'NONE', #25, #107, #170 ) ;
#7 = EDGE_LOOP ( 'NONE', ( #194 ) ) ;
#8 = ORIENTED_EDGE ( 'NONE', *, *, #134, .T. ) ;
#9 = DIRECTION ( 'NONE',  ( -3.491481338843133355E-15, -4.599881392510311456E-16, -1.000000000000000000 ) ) ;
#10 = VERTEX_POINT ( 'NONE', #32 ) ;
#11 = COORDINATED_UNIVERSAL_TIME_OFFSET ( 1, 0, .AHEAD. ) ;
#12 = APPROVAL_PERSON_ORGANIZATION ( #147, #95, #166 ) ;
#13 = FACE_OUTER_BOUND ( 'NONE', #2, .T. ) ;
#14 = DATE_AND_TIME ( #121, #144 ) ;
#15 = ADVANCED_FACE ( 'NONE', ( #174, #132 ), #227, .T. ) ;
#16 = FACE_OUTER_BOUND ( 'NONE', #222, .T. ) ;
#17 = PERSON_AND_ORGANIZATION ( #237, #180 ) ;
#18 = CC_DESIGN_PERSON_AND_ORGANIZATION_ASSIGNMENT ( #17, #165, ( #225 ) ) ;
#19 = CIRCLE ( 'NONE', #238, 2.053999999999998494 ) ;
#20 = ADVANCED_FACE ( 'NONE', ( #78 ), #207, .T. ) ;
#21 = DIRECTION ( 'NONE',  ( 1.000000000000000000, 0.0000000000000000000, 0.0000000000000000000 ) ) ;
#22 = PERSON_AND_ORGANIZATION_ROLE ( 'design_owner' ) ;
#23 = DIRECTION ( 'NONE',  ( -3.491481338843133355E-15, 9.031770143711729009E-17, -1.000000000000000000 ) ) ;
#24 = AXIS2_PLACEMENT_3D ( 'NONE', #75, #243, #21 ) ;
#25 = CARTESIAN_POINT ( 'NONE',  ( 2.793185071074506684E-13, -7.225416114969383207E-15, 80.00000000000000000 ) ) ;
#26 = EDGE_LOOP ( 'NONE', ( #167 ) ) ;
#27 = ORIENTED_EDGE ( 'NONE', *, *, #99, .T. ) ;
#28 = AXIS2_PLACEMENT_3D ( 'NONE', #202, #9, #34 ) ;
#29 = APPROVAL ( #39, 'UNSPECIFIED' ) ;
#30 = FACE_BOUND ( 'NONE', #109, .T. ) ;
#31 = PRODUCT ( '321314', '321314', '', ( #88 ) ) ;
#32 = CARTESIAN_POINT ( 'NONE',  ( 4.852575175363789101E-14, 2.053999999999998050, 13.89832768509551819 ) ) ;
#33 = DIRECTION ( 'NONE',  ( 0.0000000000000000000, 1.000000000000000000, 0.0000000000000000000 ) ) ;
#34 = DIRECTION ( 'NONE',  ( -3.000475083758121058E-30, 1.000000000000000000, -8.445586543217207358E-16 ) ) ;
#35 = UNCERTAINTY_MEASURE_WITH_UNIT (LENGTH_MEASURE( 1.000000000000000082E-05 ), #40, 'distance_accuracy_value', 'NONE');
#36 = APPROVAL_DATE_TIME ( #223, #95 ) ;
#37 = ADVANCED_FACE ( 'NONE', ( #154, #58 ), #241, .T. ) ;
#38 = CLOSED_SHELL ( 'NONE', ( #20, #37, #69, #203, #103 ) ) ;
#39 = APPROVAL_STATUS ( 'not_yet_approved' ) ;
#40 =( LENGTH_UNIT ( ) NAMED_UNIT ( * ) SI_UNIT ( .MILLI., .METRE. ) );
#41 = EDGE_LOOP ( 'NONE', ( #224 ) ) ;
#42 = EDGE_LOOP ( 'NONE', ( #59 ) ) ;
#43 = ORIENTED_EDGE ( 'NONE', *, *, #122, .T. ) ;
#44 = CARTESIAN_POINT ( 'NONE',  ( 4.885231259955590439E-14, 1.999999999999990452, 13.99185842870425134 ) ) ;
#45 = VERTEX_POINT ( 'NONE', #175 ) ;
#46 = ADVANCED_FACE ( 'NONE', ( #100 ), #112, .T. ) ;
#47 = APPROVAL_DATE_TIME ( #14, #3 ) ;
#48 = DIRECTION ( 'NONE',  ( 3.491481338843133355E-15, 4.599881392510311456E-16, 1.000000000000000000 ) ) ;
#49 = CARTESIAN_POINT ( 'NONE',  ( 4.852575175363789101E-14, -1.255265010337678512E-15, 13.89832768509551819 ) ) ;
#50 = DIRECTION ( 'NONE',  ( 0.0000000000000000000, 1.000000000000000000, 0.0000000000000000000 ) ) ;
#51 = PRODUCT_DEFINITION ( 'UNKNOWN', '', #225, #85 ) ;
#52 = PERSON_AND_ORGANIZATION_ROLE ( 'classification_officer' ) ;
#53 = PRODUCT_DEFINITION_SHAPE ( 'NONE', 'NONE',  #51 ) ;
#54 = ADVANCED_FACE ( 'NONE', ( #97, #64 ), #210, .T. ) ;
#55 = COORDINATED_UNIVERSAL_TIME_OFFSET ( 1, 0, .AHEAD. ) ;
#56 = APPLICATION_PROTOCOL_DEFINITION ( 'international standard', 'config_control_design', 1994, #218 ) ;
#57 = EDGE_LOOP ( 'NONE', ( #60 ) ) ;
#58 = FACE_OUTER_BOUND ( 'NONE', #26, .T. ) ;
#59 = ORIENTED_EDGE ( 'NONE', *, *, #217, .T. ) ;
#60 = ORIENTED_EDGE ( 'NONE', *, *, #235, .F. ) ;
#61 = DIRECTION ( 'NONE',  ( 0.0000000000000000000, 1.000000000000000000, 0.0000000000000000000 ) ) ;
#62 = PLANE ( 'NONE',  #87 ) ;
#63 = COORDINATED_UNIVERSAL_TIME_OFFSET ( 1, 0, .AHEAD. ) ;
#64 = FACE_BOUND ( 'NONE', #57, .T. ) ;
#65 = PLANE ( 'NONE',  #89 ) ;
#66 = AXIS2_PLACEMENT_3D ( 'NONE', #190, #23, #33 ) ;
#67 = LOCAL_TIME ( 11, 2, 32.00000000000000000, #11 ) ;
#68 = DIRECTION ( 'NONE',  ( -3.491481338843133355E-15, 9.031770143711729009E-17, -1.000000000000000000 ) ) ;
#69 = ADVANCED_FACE ( 'NONE', ( #162, #115 ), #80, .T. ) ;
#70 = PERSON_AND_ORGANIZATION ( #237, #180 ) ;
#71 = VERTEX_POINT ( 'NONE', #191 ) ;
#72 =( GEOMETRIC_REPRESENTATION_CONTEXT ( 3 ) GLOBAL_UNCERTAINTY_ASSIGNED_CONTEXT ( ( #35 ) ) GLOBAL_UNIT_ASSIGNED_CONTEXT ( ( #40, #102, #205 ) ) REPRESENTATION_CONTEXT ( 'NONE', 'WORKASPACE' ) );
#73 = ORIENTED_EDGE ( 'NONE', *, *, #145, .T. ) ;
#74 = DATE_AND_TIME ( #188, #111 ) ;
#75 = CARTESIAN_POINT ( 'NONE',  ( 0.0000000000000000000, 0.0000000000000000000, 0.0000000000000000000 ) ) ;
#76 = CARTESIAN_POINT ( 'NONE',  ( 0.0000000000000000000, 0.0000000000000000000, 0.0000000000000000000 ) ) ;
#77 = ORIENTED_EDGE ( 'NONE', *, *, #172, .F. ) ;
#78 = FACE_OUTER_BOUND ( 'NONE', #41, .T. ) ;
#79 = DIRECTION ( 'NONE',  ( -3.491481338843133355E-15, 9.031770143711729009E-17, -1.000000000000000000 ) ) ;
#80 = CYLINDRICAL_SURFACE ( 'NONE', #133, 1.999999999999993561 ) ;
#81 = PRODUCT_RELATED_PRODUCT_CATEGORY ( 'detail', '', ( #31 ) ) ;
#82 = CARTESIAN_POINT ( 'NONE',  ( 4.852575175363787208E-14, 2.053999999999998050, 13.89832768509551286 ) ) ;
#83 = CARTESIAN_POINT ( 'NONE',  ( 2.738633534640225290E-30, 3.608035734502975043E-31, 7.843758189890951626E-16 ) ) ;
#84 = CARTESIAN_POINT ( 'NONE',  ( 4.852575175363789101E-14, -1.255265010337678512E-15, 13.89832768509551819 ) ) ;
#85 = DESIGN_CONTEXT ( 'detailed design', #129, 'design' ) ;
#86 = VERTEX_POINT ( 'NONE', #219 ) ;
#87 = AXIS2_PLACEMENT_3D ( 'NONE', #82, #98, #182 ) ;
#88 = MECHANICAL_CONTEXT ( 'NONE', #218, 'mechanical' ) ;
#89 = AXIS2_PLACEMENT_3D ( 'NONE', #139, #117, #212 ) ;
#90 = APPROVAL_DATE_TIME ( #106, #29 ) ;
#91 = ORIENTED_EDGE ( 'NONE', *, *, #235, .T. ) ;
#92 = CALENDAR_DATE ( 2021, 26, 11 ) ;
#93 = DATE_TIME_ROLE ( 'classification_date' ) ;
#94 = DIRECTION ( 'NONE',  ( 0.0000000000000000000, 1.000000000000000000, 0.0000000000000000000 ) ) ;
#95 = APPROVAL ( #120, 'UNSPECIFIED' ) ;
#96 = DIRECTION ( 'NONE',  ( 0.0000000000000000000, 1.000000000000000000, 0.0000000000000000000 ) ) ;
#97 = FACE_OUTER_BOUND ( 'NONE', #131, .T. ) ;
#98 = DIRECTION ( 'NONE',  ( -3.491481338843133355E-15, 9.031770143711729009E-17, -1.000000000000000000 ) ) ;
#99 = EDGE_CURVE ( 'NONE', #45, #45, #1, .T. ) ;
#100 = FACE_OUTER_BOUND ( 'NONE', #148, .T. ) ;
#101 = AXIS2_PLACEMENT_3D ( 'NONE', #83, #48, #197 ) ;
#102 =( NAMED_UNIT ( * ) PLANE_ANGLE_UNIT ( ) SI_UNIT ( $, .RADIAN. ) );
#103 = ADVANCED_FACE ( 'NONE', ( #198 ), #62, .T. ) ;
#104 = PERSON_AND_ORGANIZATION ( #237, #180 ) ;
#105 = CC_DESIGN_PERSON_AND_ORGANIZATION_ASSIGNMENT ( #189, #22, ( #31 ) ) ;
#106 = DATE_AND_TIME ( #128, #185 ) ;
#107 = DIRECTION ( 'NONE',  ( 3.491481338843133355E-15, -9.031770143711729009E-17, 1.000000000000000000 ) ) ;
#108 = CLOSED_SHELL ( 'NONE', ( #155, #15, #54, #46 ) ) ;
#109 = EDGE_LOOP ( 'NONE', ( #43 ) ) ;
#110 = EDGE_LOOP ( 'NONE', ( #27 ) ) ;
#111 = LOCAL_TIME ( 11, 2, 32.00000000000000000, #184 ) ;
#112 = PLANE ( 'NONE',  #114 ) ;
#113 = SHAPE_DEFINITION_REPRESENTATION ( #53, #146 ) ;
#114 = AXIS2_PLACEMENT_3D ( 'NONE', #213, #183, #214 ) ;
#115 = FACE_OUTER_BOUND ( 'NONE', #7, .T. ) ;
#116 = APPROVAL_STATUS ( 'not_yet_approved' ) ;
#117 = DIRECTION ( 'NONE',  ( 3.491481338843133355E-15, 4.599881392510311456E-16, 1.000000000000000000 ) ) ;
#118 = DIRECTION ( 'NONE',  ( -1.594002388246496295E-30, 1.000000000000000000, -4.486717851084125878E-16 ) ) ;
#119 = CC_DESIGN_PERSON_AND_ORGANIZATION_ASSIGNMENT ( #70, #143, ( #225 ) ) ;
#120 = APPROVAL_STATUS ( 'not_yet_approved' ) ;
#121 = CALENDAR_DATE ( 2021, 26, 11 ) ;
#122 = EDGE_CURVE ( 'NONE', #135, #135, #163, .T. ) ;
#123 = PERSON_AND_ORGANIZATION ( #237, #180 ) ;
#124 = CIRCLE ( 'NONE', #28, 2.053999999999991388 ) ;
#125 = EDGE_LOOP ( 'NONE', ( #226 ) ) ;
#126 = APPLICATION_PROTOCOL_DEFINITION ( 'international standard', 'config_control_design', 1994, #129 ) ;
#127 = DIRECTION ( 'NONE',  ( -1.606040004284151745E-30, 1.000000000000000000, -4.599881392510312442E-16 ) ) ;
#128 = CALENDAR_DATE ( 2021, 26, 11 ) ;
#129 = APPLICATION_CONTEXT ( 'configuration controlled 3d designs of mechanical parts and assemblies' ) ;
#130 = APPROVAL_PERSON_ORGANIZATION ( #168, #29, #186 ) ;
#131 = EDGE_LOOP ( 'NONE', ( #73 ) ) ;
#132 = FACE_OUTER_BOUND ( 'NONE', #125, .T. ) ;
#133 = AXIS2_PLACEMENT_3D ( 'NONE', #211, #204, #236 ) ;
#134 = EDGE_CURVE ( 'NONE', #10, #10, #230, .T. ) ;
#135 = VERTEX_POINT ( 'NONE', #44 ) ;
#136 = AXIS2_PLACEMENT_3D ( 'NONE', #84, #179, #61 ) ;
#137 = CARTESIAN_POINT ( 'NONE',  ( 1.396592535537256300E-15, 1.839952557004128329E-16, 0.4000000000000008549 ) ) ;
#138 = CARTESIAN_POINT ( 'NONE',  ( 4.885231259955590439E-14, -1.263712492114123682E-15, 13.99185842870425134 ) ) ;
#139 = CARTESIAN_POINT ( 'NONE',  ( 4.852575175363787208E-14, 6.393065890568176592E-15, 13.89832768509551286 ) ) ;
#140 = AXIS2_PLACEMENT_3D ( 'NONE', #138, #232, #96 ) ;
#141 = CARTESIAN_POINT ( 'NONE',  ( 2.738633534640225290E-30, 3.608035734502975043E-31, 7.843758189890951626E-16 ) ) ;
#142 = CC_DESIGN_DATE_AND_TIME_ASSIGNMENT ( #74, #151, ( #51 ) ) ;
#143 = PERSON_AND_ORGANIZATION_ROLE ( 'design_supplier' ) ;
#144 = LOCAL_TIME ( 11, 2, 32.00000000000000000, #63 ) ;
#145 = EDGE_CURVE ( 'NONE', #160, #160, #19, .T. ) ;
#146 = ADVANCED_BREP_SHAPE_REPRESENTATION ( '321314', ( #176, #177, #24 ), #72 ) ;
#147 = PERSON_AND_ORGANIZATION ( #237, #180 ) ;
#148 = EDGE_LOOP ( 'NONE', ( #91 ) ) ;
#149 = CARTESIAN_POINT ( 'NONE',  ( 2.779219145719134403E-13, 1.999999999999988010, 79.60000000000000853 ) ) ;
#150 = EDGE_LOOP ( 'NONE', ( #8 ) ) ;
#151 = DATE_TIME_ROLE ( 'creation_date' ) ;
#152 = DATE_AND_TIME ( #92, #67 ) ;
#153 = LOCAL_TIME ( 11, 2, 32.00000000000000000, #55 ) ;
#154 = FACE_BOUND ( 'NONE', #110, .T. ) ;
#155 = ADVANCED_FACE ( 'NONE', ( #13 ), #65, .T. ) ;
#156 = CARTESIAN_POINT ( 'NONE',  ( 2.779219145719134403E-13, -7.189289034394536528E-15, 79.60000000000000853 ) ) ;
#157 = AXIS2_PLACEMENT_3D ( 'NONE', #76, #171, #127 ) ;
#158 = DIRECTION ( 'NONE',  ( -3.491481338843133355E-15, 9.031770143711729009E-17, -1.000000000000000000 ) ) ;
#159 = SECURITY_CLASSIFICATION ( '', '', #216 ) ;
#160 = VERTEX_POINT ( 'NONE', #233 ) ;
#161 = DIRECTION ( 'NONE',  ( 0.0000000000000000000, 1.000000000000000000, 0.0000000000000000000 ) ) ;
#162 = FACE_OUTER_BOUND ( 'NONE', #42, .T. ) ;
#163 = CIRCLE ( 'NONE', #140, 1.999999999999991784 ) ;
#164 = CC_DESIGN_APPROVAL ( #29, ( #51 ) ) ;
#165 = PERSON_AND_ORGANIZATION_ROLE ( 'creator' ) ;
#166 = APPROVAL_ROLE ( '' ) ;
#167 = ORIENTED_EDGE ( 'NONE', *, *, #217, .F. ) ;
#168 = PERSON_AND_ORGANIZATION ( #237, #180 ) ;
#169 = AXIS2_PLACEMENT_3D ( 'NONE', #156, #79, #50 ) ;
#170 = DIRECTION ( 'NONE',  ( -3.153425691349006731E-31, -1.000000000000000000, -9.031770143711729009E-17 ) ) ;
#171 = DIRECTION ( 'NONE',  ( -3.491481338843133355E-15, -4.599881392510311456E-16, -1.000000000000000000 ) ) ;
#172 = EDGE_CURVE ( 'NONE', #86, #86, #124, .T. ) ;
#173 = CONICAL_SURFACE ( 'NONE', #136, 2.053999999999999382, 0.5235987755982954850 ) ;
#174 = FACE_OUTER_BOUND ( 'NONE', #209, .T. ) ;
#175 = CARTESIAN_POINT ( 'NONE',  ( 2.793185071074506684E-13, 1.599999999999987876, 80.00000000000000000 ) ) ;
#176 = MANIFOLD_SOLID_BREP ( 'Corps-Déplacer/Copier1[1]', #38 ) ;
#177 = MANIFOLD_SOLID_BREP ( 'Corps-Déplacer/Copier1[2]', #108 ) ;
#178 = DIRECTION ( 'NONE',  ( -3.491481338843133355E-15, -4.599881392510311456E-16, -1.000000000000000000 ) ) ;
#179 = DIRECTION ( 'NONE',  ( -3.491481338843133355E-15, 9.031770143711729009E-17, -1.000000000000000000 ) ) ;
#180 = ORGANIZATION ( 'UNSPECIFIED', 'UNSPECIFIED', '' ) ;
#181 = APPROVAL_ROLE ( '' ) ;
#182 = DIRECTION ( 'NONE',  ( 3.153425691349006731E-31, 1.000000000000000000, 9.031770143711729009E-17 ) ) ;
#183 = DIRECTION ( 'NONE',  ( -3.491481338843133355E-15, -4.599881392510311456E-16, -1.000000000000000000 ) ) ;
#184 = COORDINATED_UNIVERSAL_TIME_OFFSET ( 1, 0, .AHEAD. ) ;
#185 = LOCAL_TIME ( 11, 2, 32.00000000000000000, #206 ) ;
#186 = APPROVAL_ROLE ( '' ) ;
#187 = CC_DESIGN_APPROVAL ( #95, ( #225 ) ) ;
#188 = CALENDAR_DATE ( 2021, 26, 11 ) ;
#189 = PERSON_AND_ORGANIZATION ( #237, #180 ) ;
#190 = CARTESIAN_POINT ( 'NONE',  ( 2.779219145719134403E-13, -7.189289034394536528E-15, 79.60000000000000853 ) ) ;
#191 = CARTESIAN_POINT ( 'NONE',  ( -1.892735826383154569E-31, 1.823059892324148779, -5.421010862427522170E-17 ) ) ;
#192 = ORIENTED_EDGE ( 'NONE', *, *, #134, .F. ) ;
#193 = ORIENTED_EDGE ( 'NONE', *, *, #172, .T. ) ;
#194 = ORIENTED_EDGE ( 'NONE', *, *, #122, .F. ) ;
#195 = PERSON_AND_ORGANIZATION ( #237, #180 ) ;
#196 = APPROVAL_PERSON_ORGANIZATION ( #195, #3, #181 ) ;
#197 = DIRECTION ( 'NONE',  ( 1.606040004284151745E-30, -1.000000000000000000, 4.599881392510311456E-16 ) ) ;
#198 = FACE_OUTER_BOUND ( 'NONE', #150, .T. ) ;
#199 = AXIS2_PLACEMENT_3D ( 'NONE', #215, #68, #94 ) ;
#200 = AXIS2_PLACEMENT_3D ( 'NONE', #49, #158, #161 ) ;
#201 = AXIS2_PLACEMENT_3D ( 'NONE', #141, #178, #229 ) ;
#202 = CARTESIAN_POINT ( 'NONE',  ( 4.852575175363789101E-14, 6.393065890568178959E-15, 13.89832768509551819 ) ) ;
#203 = ADVANCED_FACE ( 'NONE', ( #30, #16 ), #173, .T. ) ;
#204 = DIRECTION ( 'NONE',  ( -3.491481338843133355E-15, 9.031770143711729009E-17, -1.000000000000000000 ) ) ;
#205 =( NAMED_UNIT ( * ) SI_UNIT ( $, .STERADIAN. ) SOLID_ANGLE_UNIT ( ) );
#206 = COORDINATED_UNIVERSAL_TIME_OFFSET ( 1, 0, .AHEAD. ) ;
#207 = PLANE ( 'NONE',  #6 ) ;
#208 = CALENDAR_DATE ( 2021, 26, 11 ) ;
#209 = EDGE_LOOP ( 'NONE', ( #193 ) ) ;
#210 = CONICAL_SURFACE ( 'NONE', #101, 1.823059892324148779, 0.5235987755982978165 ) ;
#211 = CARTESIAN_POINT ( 'NONE',  ( 0.0000000000000000000, 0.0000000000000000000, 0.0000000000000000000 ) ) ;
#212 = DIRECTION ( 'NONE',  ( 1.606040004284151745E-30, -1.000000000000000000, 4.599881392510311456E-16 ) ) ;
#213 = CARTESIAN_POINT ( 'NONE',  ( -1.558590349958429109E-30, 1.823059892324148779, -4.463980181188229016E-16 ) ) ;
#214 = DIRECTION ( 'NONE',  ( -1.606040004284151745E-30, 1.000000000000000000, -4.599881392510311456E-16 ) ) ;
#215 = CARTESIAN_POINT ( 'NONE',  ( 2.793185071074506684E-13, -7.225416114969383207E-15, 80.00000000000000000 ) ) ;
#216 = SECURITY_CLASSIFICATION_LEVEL ( 'unclassified' ) ;
#217 = EDGE_CURVE ( 'NONE', #240, #240, #242, .T. ) ;
#218 = APPLICATION_CONTEXT ( 'configuration controlled 3d designs of mechanical parts and assemblies' ) ;
#219 = CARTESIAN_POINT ( 'NONE',  ( 4.852575175363788470E-14, 2.053999999999998050, 13.89832768509551642 ) ) ;
#220 = CC_DESIGN_SECURITY_CLASSIFICATION ( #159, ( #225 ) ) ;
#221 = CC_DESIGN_APPROVAL ( #3, ( #159 ) ) ;
#222 = EDGE_LOOP ( 'NONE', ( #192 ) ) ;
#223 = DATE_AND_TIME ( #208, #153 ) ;
#224 = ORIENTED_EDGE ( 'NONE', *, *, #99, .F. ) ;
#225 = PRODUCT_DEFINITION_FORMATION_WITH_SPECIFIED_SOURCE ( 'ANY', '', #31, .NOT_KNOWN. ) ;
#226 = ORIENTED_EDGE ( 'NONE', *, *, #145, .F. ) ;
#227 = CYLINDRICAL_SURFACE ( 'NONE', #157, 2.053999999999994941 ) ;
#228 = CC_DESIGN_PERSON_AND_ORGANIZATION_ASSIGNMENT ( #104, #4, ( #51 ) ) ;
#229 = DIRECTION ( 'NONE',  ( -1.606040004284151745E-30, 1.000000000000000000, -4.599881392510311456E-16 ) ) ;
#230 = CIRCLE ( 'NONE', #200, 2.053999999999999382 ) ;
#231 = CIRCLE ( 'NONE', #201, 1.823059892324148779 ) ;
#232 = DIRECTION ( 'NONE',  ( -3.491481338843133355E-15, 9.031770143711729009E-17, -1.000000000000000000 ) ) ;
#233 = CARTESIAN_POINT ( 'NONE',  ( 1.396592535537252948E-15, 2.053999999999998494, 0.3999999999999999112 ) ) ;
#234 = DIRECTION ( 'NONE',  ( -3.491481338843133355E-15, -4.599881392510311456E-16, -1.000000000000000000 ) ) ;
#235 = EDGE_CURVE ( 'NONE', #71, #71, #231, .T. ) ;
#236 = DIRECTION ( 'NONE',  ( 3.153425691349006731E-31, 1.000000000000000000, 9.031770143711729009E-17 ) ) ;
#237 = PERSON ( 'UNSPECIFIED', 'UNSPECIFIED', 'UNSPECIFIED', ('UNSPECIFIED'), ('UNSPECIFIED'), ('UNSPECIFIED') ) ;
#238 = AXIS2_PLACEMENT_3D ( 'NONE', #137, #234, #118 ) ;
#239 = CC_DESIGN_DATE_AND_TIME_ASSIGNMENT ( #152, #93, ( #159 ) ) ;
#240 = VERTEX_POINT ( 'NONE', #149 ) ;
#241 = CONICAL_SURFACE ( 'NONE', #66, 1.999999999999995337, 0.7853981633974516097 ) ;
#242 = CIRCLE ( 'NONE', #169, 1.999999999999995337 ) ;
#243 = DIRECTION ( 'NONE',  ( 0.0000000000000000000, 0.0000000000000000000, 1.000000000000000000 ) ) ;
ENDSEC;
END-ISO-10303-21;
