ISO-10303-21;
HEADER;
FILE_DESCRIPTION (( 'STEP AP203' ),
    '1' );
FILE_NAME ('321313.step',
    '2021-11-26T13:02:26',
    ( '' ),
    ( '' ),
    'SwSTEP 2.0',
    'SolidWorks 2019',
    '' );
FILE_SCHEMA (( 'CONFIG_CONTROL_DESIGN' ));
ENDSEC;

DATA;
#1 = DIRECTION ( 'NONE',  ( 0.0000000000000000000, 1.000000000000000000, 0.0000000000000000000 ) ) ;
#2 = PERSON_AND_ORGANIZATION ( #37, #105 ) ;
#3 = CC_DESIGN_PERSON_AND_ORGANIZATION_ASSIGNMENT ( #98, #38, ( #141 ) ) ;
#4 = DATE_TIME_ROLE ( 'classification_date' ) ;
#5 = CALENDAR_DATE ( 2021, 26, 11 ) ;
#6 = PERSON_AND_ORGANIZATION_ROLE ( 'creator' ) ;
#7 = ORIENTED_EDGE ( 'NONE', *, *, #27, .T. ) ;
#8 = CIRCLE ( 'NONE', #48, 1.499999999999997558 ) ;
#9 = DIRECTION ( 'NONE',  ( -3.491481338843133355E-15, 1.049697256412017316E-16, -1.000000000000000000 ) ) ;
#10 = ORIENTED_EDGE ( 'NONE', *, *, #33, .T. ) ;
#11 = CARTESIAN_POINT ( 'NONE',  ( 3.537441754194551547E-14, 6.090992508479528527E-15, 10.13163586137523708 ) ) ;
#12 = CARTESIAN_POINT ( 'NONE',  ( 2.433562493173664138E-13, -7.316389877191761450E-15, 69.70000000000001705 ) ) ;
#13 = DIRECTION ( 'NONE',  ( 2.099027932839952696E-30, -1.000000000000000000, 6.011854938154828859E-16 ) ) ;
#14 = APPROVAL ( #171, 'UNSPECIFIED' ) ;
#15 = CARTESIAN_POINT ( 'NONE',  ( 3.869445280877825814E-14, 1.499999999999991562, 11.08253175473057794 ) ) ;
#16 = CIRCLE ( 'NONE', #204, 1.904662432702592723 ) ;
#17 = DIRECTION ( 'NONE',  ( 0.0000000000000000000, 1.000000000000000000, 0.0000000000000000000 ) ) ;
#18 = CARTESIAN_POINT ( 'NONE',  ( 0.0000000000000000000, 0.0000000000000000000, 0.0000000000000000000 ) ) ;
#19 = EDGE_CURVE ( 'NONE', #76, #76, #16, .T. ) ;
#20 = COORDINATED_UNIVERSAL_TIME_OFFSET ( 1, 0, .AHEAD. ) ;
#21 = CLOSED_SHELL ( 'NONE', ( #62, #92, #146, #179, #174 ) ) ;
#22 = COORDINATED_UNIVERSAL_TIME_OFFSET ( 1, 0, .AHEAD. ) ;
#23 = ADVANCED_FACE ( 'NONE', ( #235 ), #142, .T. ) ;
#24 = APPROVAL_STATUS ( 'not_yet_approved' ) ;
#25 = PERSON_AND_ORGANIZATION ( #37, #105 ) ;
#26 = DIRECTION ( 'NONE',  ( 0.0000000000000000000, 1.000000000000000000, 0.0000000000000000000 ) ) ;
#27 = EDGE_CURVE ( 'NONE', #187, #187, #58, .T. ) ;
#28 = DIRECTION ( 'NONE',  ( 3.491481338843133355E-15, 6.011854938154829845E-16, 1.000000000000000000 ) ) ;
#29 = EDGE_LOOP ( 'NONE', ( #147 ) ) ;
#30 = DIRECTION ( 'NONE',  ( -3.664998382197393967E-31, -1.000000000000000000, -1.049697256412017316E-16 ) ) ;
#31 = LOCAL_TIME ( 14, 2, 26.00000000000000000, #209 ) ;
#32 = FACE_OUTER_BOUND ( 'NONE', #214, .T. ) ;
#33 = EDGE_CURVE ( 'NONE', #88, #88, #8, .T. ) ;
#34 = CARTESIAN_POINT ( 'NONE',  ( -2.061839950833890953E-33, 1.904662432702592723, -5.905344324471530187E-19 ) ) ;
#35 = APPLICATION_CONTEXT ( 'configuration controlled 3d designs of mechanical parts and assemblies' ) ;
#36 = MECHANICAL_CONTEXT ( 'NONE', #181, 'mechanical' ) ;
#37 = PERSON ( 'UNSPECIFIED', 'UNSPECIFIED', 'UNSPECIFIED', ('UNSPECIFIED'), ('UNSPECIFIED'), ('UNSPECIFIED') ) ;
#38 = PERSON_AND_ORGANIZATION_ROLE ( 'design_owner' ) ;
#39 = SECURITY_CLASSIFICATION ( '', '', #170 ) ;
#40 = COORDINATED_UNIVERSAL_TIME_OFFSET ( 1, 0, .AHEAD. ) ;
#41 = ADVANCED_BREP_SHAPE_REPRESENTATION ( '321313', ( #233, #67, #91 ), #111 ) ;
#42 = PERSON_AND_ORGANIZATION ( #37, #105 ) ;
#43 = APPROVAL_PERSON_ORGANIZATION ( #61, #72, #228 ) ;
#44 = EDGE_LOOP ( 'NONE', ( #7 ) ) ;
#45 = DIRECTION ( 'NONE',  ( -2.099027932839952696E-30, 1.000000000000000000, -6.011854938154828859E-16 ) ) ;
#46 = APPROVAL ( #24, 'UNSPECIFIED' ) ;
#47 = DIRECTION ( 'NONE',  ( 3.491481338843133355E-15, -1.049697256412017316E-16, 1.000000000000000000 ) ) ;
#48 = AXIS2_PLACEMENT_3D ( 'NONE', #238, #63, #196 ) ;
#49 = DIRECTION ( 'NONE',  ( -3.491481338843133355E-15, 1.049697256412017316E-16, -1.000000000000000000 ) ) ;
#50 = ORIENTED_EDGE ( 'NONE', *, *, #19, .T. ) ;
#51 = CARTESIAN_POINT ( 'NONE',  ( 3.537441754194551547E-14, 2.048999999999998600, 10.13163586137523886 ) ) ;
#52 = DIRECTION ( 'NONE',  ( -3.491481338843133355E-15, 1.049697256412017316E-16, -1.000000000000000000 ) ) ;
#53 = CC_DESIGN_PERSON_AND_ORGANIZATION_ASSIGNMENT ( #232, #194, ( #64 ) ) ;
#54 = CARTESIAN_POINT ( 'NONE',  ( 8.728703347107835360E-16, 2.048999999999998600, 0.2500000000000000000 ) ) ;
#55 = FACE_OUTER_BOUND ( 'NONE', #197, .T. ) ;
#56 = ADVANCED_FACE ( 'NONE', ( #163 ), #107, .T. ) ;
#57 = CARTESIAN_POINT ( 'NONE',  ( 3.869445280877825814E-14, -1.163330317703974832E-15, 11.08253175473057794 ) ) ;
#58 = CIRCLE ( 'NONE', #211, 1.199999999999997513 ) ;
#59 = PRODUCT_DEFINITION ( 'UNKNOWN', '', #64, #89 ) ;
#60 = APPROVAL_DATE_TIME ( #192, #46 ) ;
#61 = PERSON_AND_ORGANIZATION ( #37, #105 ) ;
#62 = ADVANCED_FACE ( 'NONE', ( #199 ), #218, .T. ) ;
#63 = DIRECTION ( 'NONE',  ( -3.491481338843133355E-15, 1.049697256412017316E-16, -1.000000000000000000 ) ) ;
#64 = PRODUCT_DEFINITION_FORMATION_WITH_SPECIFIED_SOURCE ( 'ANY', '', #141, .NOT_KNOWN. ) ;
#65 = EDGE_LOOP ( 'NONE', ( #178 ) ) ;
#66 = FACE_OUTER_BOUND ( 'NONE', #234, .T. ) ;
#67 = MANIFOLD_SOLID_BREP ( 'Corps-Déplacer/Copier1[2]', #154 ) ;
#68 = DIRECTION ( 'NONE',  ( 0.0000000000000000000, 1.000000000000000000, 0.0000000000000000000 ) ) ;
#69 = AXIS2_PLACEMENT_3D ( 'NONE', #202, #224, #109 ) ;
#70 = ORIENTED_EDGE ( 'NONE', *, *, #133, .F. ) ;
#71 = DIRECTION ( 'NONE',  ( -3.491481338843133355E-15, 1.049697256412017316E-16, -1.000000000000000000 ) ) ;
#72 = APPROVAL ( #137, 'UNSPECIFIED' ) ;
#73 = APPROVAL_PERSON_ORGANIZATION ( #2, #46, #77 ) ;
#74 = DIRECTION ( 'NONE',  ( 0.0000000000000000000, 1.000000000000000000, 0.0000000000000000000 ) ) ;
#75 = CC_DESIGN_DATE_AND_TIME_ASSIGNMENT ( #193, #4, ( #39 ) ) ;
#76 = VERTEX_POINT ( 'NONE', #34 ) ;
#77 = APPROVAL_ROLE ( '' ) ;
#78 = CARTESIAN_POINT ( 'NONE',  ( 0.0000000000000000000, 0.0000000000000000000, 0.0000000000000000000 ) ) ;
#79 = DATE_AND_TIME ( #95, #96 ) ;
#80 = CONICAL_SURFACE ( 'NONE', #237, 2.048999999999999488, 0.5235987755982924874 ) ;
#81 = DIRECTION ( 'NONE',  ( -3.491481338843133355E-15, -6.011854938154829845E-16, -1.000000000000000000 ) ) ;
#82 = AXIS2_PLACEMENT_3D ( 'NONE', #106, #81, #140 ) ;
#83 = ORIENTED_EDGE ( 'NONE', *, *, #221, .F. ) ;
#84 = ORIENTED_EDGE ( 'NONE', *, *, #231, .T. ) ;
#85 = EDGE_LOOP ( 'NONE', ( #124 ) ) ;
#86 = CONICAL_SURFACE ( 'NONE', #162, 1.904662432702592723, 0.5235987755982977054 ) ;
#87 = EDGE_LOOP ( 'NONE', ( #236 ) ) ;
#88 = VERTEX_POINT ( 'NONE', #243 ) ;
#89 = DESIGN_CONTEXT ( 'detailed design', #35, 'design' ) ;
#90 = FACE_OUTER_BOUND ( 'NONE', #182, .T. ) ;
#91 = AXIS2_PLACEMENT_3D ( 'NONE', #78, #206, #155 ) ;
#92 = ADVANCED_FACE ( 'NONE', ( #108, #177 ), #100, .T. ) ;
#93 = VERTEX_POINT ( 'NONE', #15 ) ;
#94 = DIRECTION ( 'NONE',  ( 3.491481338843133355E-15, 6.011854938154829845E-16, 1.000000000000000000 ) ) ;
#95 = CALENDAR_DATE ( 2021, 26, 11 ) ;
#96 = LOCAL_TIME ( 14, 2, 26.00000000000000000, #40 ) ;
#97 = CC_DESIGN_DATE_AND_TIME_ASSIGNMENT ( #168, #191, ( #59 ) ) ;
#98 = PERSON_AND_ORGANIZATION ( #37, #105 ) ;
#99 = CALENDAR_DATE ( 2021, 26, 11 ) ;
#100 = CONICAL_SURFACE ( 'NONE', #217, 1.499999999999997558, 0.7853981633974573828 ) ;
#101 = ADVANCED_FACE ( 'NONE', ( #66, #212 ), #122, .T. ) ;
#102 = CARTESIAN_POINT ( 'NONE',  ( 3.537441754194552178E-14, 6.090992508479530105E-15, 10.13163586137524064 ) ) ;
#103 = CARTESIAN_POINT ( 'NONE',  ( 2.444036937190193601E-13, -7.347880794884121511E-15, 70.00000000000000000 ) ) ;
#104 = AXIS2_PLACEMENT_3D ( 'NONE', #102, #188, #201 ) ;
#105 = ORGANIZATION ( 'UNSPECIFIED', 'UNSPECIFIED', '' ) ;
#106 = CARTESIAN_POINT ( 'NONE',  ( -2.000000744412235989E-30, 1.904662432702592723, -5.728229797942771685E-16 ) ) ;
#107 = PLANE ( 'NONE',  #186 ) ;
#108 = FACE_BOUND ( 'NONE', #44, .T. ) ;
#109 = DIRECTION ( 'NONE',  ( -2.067860360005818490E-30, 1.000000000000000000, -6.085078078859594688E-16 ) ) ;
#110 = PLANE ( 'NONE',  #119 ) ;
#111 =( GEOMETRIC_REPRESENTATION_CONTEXT ( 3 ) GLOBAL_UNCERTAINTY_ASSIGNED_CONTEXT ( ( #145 ) ) GLOBAL_UNIT_ASSIGNED_CONTEXT ( ( #183, #129, #185 ) ) REPRESENTATION_CONTEXT ( 'NONE', 'WORKASPACE' ) );
#112 = VERTEX_POINT ( 'NONE', #51 ) ;
#113 = DIRECTION ( 'NONE',  ( 3.664998382197393967E-31, 1.000000000000000000, 1.049697256412017316E-16 ) ) ;
#114 = APPLICATION_PROTOCOL_DEFINITION ( 'international standard', 'config_control_design', 1994, #35 ) ;
#115 = APPROVAL_DATE_TIME ( #132, #72 ) ;
#116 = CC_DESIGN_APPROVAL ( #46, ( #39 ) ) ;
#117 = PERSON_AND_ORGANIZATION_ROLE ( 'classification_officer' ) ;
#118 = COORDINATED_UNIVERSAL_TIME_OFFSET ( 1, 0, .AHEAD. ) ;
#119 = AXIS2_PLACEMENT_3D ( 'NONE', #240, #166, #151 ) ;
#120 = DIRECTION ( 'NONE',  ( -3.491481338843133355E-15, -6.011854938154829845E-16, -1.000000000000000000 ) ) ;
#121 = EDGE_LOOP ( 'NONE', ( #10 ) ) ;
#122 = CYLINDRICAL_SURFACE ( 'NONE', #165, 2.048999999999995492 ) ;
#123 = CARTESIAN_POINT ( 'NONE',  ( 0.0000000000000000000, 0.0000000000000000000, 0.0000000000000000000 ) ) ;
#124 = ORIENTED_EDGE ( 'NONE', *, *, #27, .F. ) ;
#125 = EDGE_CURVE ( 'NONE', #112, #112, #227, .T. ) ;
#126 = CARTESIAN_POINT ( 'NONE',  ( 3.537441754194551547E-14, -1.063515036665119395E-15, 10.13163586137523886 ) ) ;
#127 = CC_DESIGN_APPROVAL ( #14, ( #64 ) ) ;
#128 = CARTESIAN_POINT ( 'NONE',  ( 2.444036937190193601E-13, 1.199999999999990186, 70.00000000000000000 ) ) ;
#129 =( NAMED_UNIT ( * ) PLANE_ANGLE_UNIT ( ) SI_UNIT ( $, .RADIAN. ) );
#130 = CIRCLE ( 'NONE', #69, 2.048999999999998600 ) ;
#131 = DIRECTION ( 'NONE',  ( -3.491481338843133355E-15, 1.049697256412017316E-16, -1.000000000000000000 ) ) ;
#132 = DATE_AND_TIME ( #152, #31 ) ;
#133 = EDGE_CURVE ( 'NONE', #226, #226, #138, .T. ) ;
#134 = APPROVAL_DATE_TIME ( #79, #14 ) ;
#135 = CC_DESIGN_SECURITY_CLASSIFICATION ( #39, ( #64 ) ) ;
#136 = ADVANCED_FACE ( 'NONE', ( #32, #167 ), #86, .T. ) ;
#137 = APPROVAL_STATUS ( 'not_yet_approved' ) ;
#138 = CIRCLE ( 'NONE', #173, 2.048999999999999488 ) ;
#139 = EDGE_LOOP ( 'NONE', ( #84 ) ) ;
#140 = DIRECTION ( 'NONE',  ( -2.099027932839952696E-30, 1.000000000000000000, -6.011854938154829845E-16 ) ) ;
#141 = PRODUCT ( '321313', '321313', '', ( #36 ) ) ;
#142 = PLANE ( 'NONE',  #82 ) ;
#143 = DIRECTION ( 'NONE',  ( 2.099027932839952696E-30, -1.000000000000000000, 6.011854938154829845E-16 ) ) ;
#144 = AXIS2_PLACEMENT_3D ( 'NONE', #18, #52, #113 ) ;
#145 = UNCERTAINTY_MEASURE_WITH_UNIT (LENGTH_MEASURE( 1.000000000000000082E-05 ), #183, 'distance_accuracy_value', 'NONE');
#146 = ADVANCED_FACE ( 'NONE', ( #149, #150 ), #222, .T. ) ;
#147 = ORIENTED_EDGE ( 'NONE', *, *, #19, .F. ) ;
#148 = FACE_BOUND ( 'NONE', #139, .T. ) ;
#149 = FACE_OUTER_BOUND ( 'NONE', #121, .T. ) ;
#150 = FACE_OUTER_BOUND ( 'NONE', #65, .T. ) ;
#151 = DIRECTION ( 'NONE',  ( 3.664998382197393967E-31, 1.000000000000000000, 1.049697256412017316E-16 ) ) ;
#152 = CALENDAR_DATE ( 2021, 26, 11 ) ;
#153 = PERSON_AND_ORGANIZATION ( #37, #105 ) ;
#154 = CLOSED_SHELL ( 'NONE', ( #56, #101, #136, #23 ) ) ;
#155 = DIRECTION ( 'NONE',  ( 1.000000000000000000, 0.0000000000000000000, 0.0000000000000000000 ) ) ;
#156 = ORIENTED_EDGE ( 'NONE', *, *, #125, .T. ) ;
#157 = AXIS2_PLACEMENT_3D ( 'NONE', #103, #47, #30 ) ;
#158 = CARTESIAN_POINT ( 'NONE',  ( 2.444036937190193601E-13, -7.347880794884121511E-15, 70.00000000000000000 ) ) ;
#159 = ORIENTED_EDGE ( 'NONE', *, *, #221, .T. ) ;
#160 = CARTESIAN_POINT ( 'NONE',  ( 3.995877808922805094E-30, 6.880356904841864027E-31, 1.144464890723660142E-15 ) ) ;
#161 = DIRECTION ( 'NONE',  ( -3.491481338843133355E-15, -6.011854938154829845E-16, -1.000000000000000000 ) ) ;
#162 = AXIS2_PLACEMENT_3D ( 'NONE', #241, #94, #13 ) ;
#163 = FACE_OUTER_BOUND ( 'NONE', #180, .T. ) ;
#164 = CARTESIAN_POINT ( 'NONE',  ( 3.537441754194551547E-14, -1.063515036665119395E-15, 10.13163586137523886 ) ) ;
#165 = AXIS2_PLACEMENT_3D ( 'NONE', #123, #120, #195 ) ;
#166 = DIRECTION ( 'NONE',  ( -3.491481338843133355E-15, 1.049697256412017316E-16, -1.000000000000000000 ) ) ;
#167 = FACE_BOUND ( 'NONE', #29, .T. ) ;
#168 = DATE_AND_TIME ( #230, #190 ) ;
#169 = CC_DESIGN_APPROVAL ( #72, ( #59 ) ) ;
#170 = SECURITY_CLASSIFICATION_LEVEL ( 'unclassified' ) ;
#171 = APPROVAL_STATUS ( 'not_yet_approved' ) ;
#172 = SHAPE_DEFINITION_REPRESENTATION ( #239, #41 ) ;
#173 = AXIS2_PLACEMENT_3D ( 'NONE', #126, #71, #17 ) ;
#174 = ADVANCED_FACE ( 'NONE', ( #90 ), #110, .T. ) ;
#175 = ORIENTED_EDGE ( 'NONE', *, *, #133, .T. ) ;
#176 = LOCAL_TIME ( 14, 2, 26.00000000000000000, #118 ) ;
#177 = FACE_OUTER_BOUND ( 'NONE', #87, .T. ) ;
#178 = ORIENTED_EDGE ( 'NONE', *, *, #231, .F. ) ;
#179 = ADVANCED_FACE ( 'NONE', ( #148, #55 ), #80, .T. ) ;
#180 = EDGE_LOOP ( 'NONE', ( #216 ) ) ;
#181 = APPLICATION_CONTEXT ( 'configuration controlled 3d designs of mechanical parts and assemblies' ) ;
#182 = EDGE_LOOP ( 'NONE', ( #175 ) ) ;
#183 =( LENGTH_UNIT ( ) NAMED_UNIT ( * ) SI_UNIT ( .MILLI., .METRE. ) );
#184 = CC_DESIGN_PERSON_AND_ORGANIZATION_ASSIGNMENT ( #210, #189, ( #59 ) ) ;
#185 =( NAMED_UNIT ( * ) SI_UNIT ( $, .STERADIAN. ) SOLID_ANGLE_UNIT ( ) );
#186 = AXIS2_PLACEMENT_3D ( 'NONE', #11, #28, #143 ) ;
#187 = VERTEX_POINT ( 'NONE', #128 ) ;
#188 = DIRECTION ( 'NONE',  ( -3.491481338843133355E-15, -6.011854938154829845E-16, -1.000000000000000000 ) ) ;
#189 = PERSON_AND_ORGANIZATION_ROLE ( 'creator' ) ;
#190 = LOCAL_TIME ( 14, 2, 26.00000000000000000, #20 ) ;
#191 = DATE_TIME_ROLE ( 'creation_date' ) ;
#192 = DATE_AND_TIME ( #5, #242 ) ;
#193 = DATE_AND_TIME ( #99, #176 ) ;
#194 = PERSON_AND_ORGANIZATION_ROLE ( 'design_supplier' ) ;
#195 = DIRECTION ( 'NONE',  ( -2.099027932839953046E-30, 1.000000000000000000, -6.011854938154830831E-16 ) ) ;
#196 = DIRECTION ( 'NONE',  ( 0.0000000000000000000, 1.000000000000000000, 0.0000000000000000000 ) ) ;
#197 = EDGE_LOOP ( 'NONE', ( #70 ) ) ;
#198 = EDGE_LOOP ( 'NONE', ( #50 ) ) ;
#199 = FACE_OUTER_BOUND ( 'NONE', #85, .T. ) ;
#200 = APPROVAL_PERSON_ORGANIZATION ( #42, #14, #208 ) ;
#201 = DIRECTION ( 'NONE',  ( -3.007796887281198747E-30, 1.000000000000000000, -8.466195587978590274E-16 ) ) ;
#202 = CARTESIAN_POINT ( 'NONE',  ( 8.728703347107877762E-16, 1.502963734538715103E-16, 0.2500000000000012768 ) ) ;
#203 = APPLICATION_PROTOCOL_DEFINITION ( 'international standard', 'config_control_design', 1994, #181 ) ;
#204 = AXIS2_PLACEMENT_3D ( 'NONE', #160, #161, #45 ) ;
#205 = VERTEX_POINT ( 'NONE', #54 ) ;
#206 = DIRECTION ( 'NONE',  ( 0.0000000000000000000, 0.0000000000000000000, 1.000000000000000000 ) ) ;
#207 = CC_DESIGN_PERSON_AND_ORGANIZATION_ASSIGNMENT ( #25, #6, ( #64 ) ) ;
#208 = APPROVAL_ROLE ( '' ) ;
#209 = COORDINATED_UNIVERSAL_TIME_OFFSET ( 1, 0, .AHEAD. ) ;
#210 = PERSON_AND_ORGANIZATION ( #37, #105 ) ;
#211 = AXIS2_PLACEMENT_3D ( 'NONE', #158, #49, #68 ) ;
#212 = FACE_OUTER_BOUND ( 'NONE', #219, .T. ) ;
#213 = PRODUCT_RELATED_PRODUCT_CATEGORY ( 'detail', '', ( #141 ) ) ;
#214 = EDGE_LOOP ( 'NONE', ( #159 ) ) ;
#215 = CC_DESIGN_PERSON_AND_ORGANIZATION_ASSIGNMENT ( #153, #117, ( #39 ) ) ;
#216 = ORIENTED_EDGE ( 'NONE', *, *, #125, .F. ) ;
#217 = AXIS2_PLACEMENT_3D ( 'NONE', #12, #9, #26 ) ;
#218 = PLANE ( 'NONE',  #157 ) ;
#219 = EDGE_LOOP ( 'NONE', ( #83 ) ) ;
#220 = DIRECTION ( 'NONE',  ( -3.491481338843133355E-15, 1.049697256412017316E-16, -1.000000000000000000 ) ) ;
#221 = EDGE_CURVE ( 'NONE', #205, #205, #130, .T. ) ;
#222 = CYLINDRICAL_SURFACE ( 'NONE', #144, 1.499999999999995337 ) ;
#223 = AXIS2_PLACEMENT_3D ( 'NONE', #57, #131, #1 ) ;
#224 = DIRECTION ( 'NONE',  ( -3.491481338843133355E-15, -6.011854938154829845E-16, -1.000000000000000000 ) ) ;
#225 = CARTESIAN_POINT ( 'NONE',  ( 3.537441754194551547E-14, 2.048999999999998600, 10.13163586137523886 ) ) ;
#226 = VERTEX_POINT ( 'NONE', #225 ) ;
#227 = CIRCLE ( 'NONE', #104, 2.048999999999992827 ) ;
#228 = APPROVAL_ROLE ( '' ) ;
#229 = CIRCLE ( 'NONE', #223, 1.499999999999992673 ) ;
#230 = CALENDAR_DATE ( 2021, 26, 11 ) ;
#231 = EDGE_CURVE ( 'NONE', #93, #93, #229, .T. ) ;
#232 = PERSON_AND_ORGANIZATION ( #37, #105 ) ;
#233 = MANIFOLD_SOLID_BREP ( 'Corps-Déplacer/Copier1[1]', #21 ) ;
#234 = EDGE_LOOP ( 'NONE', ( #156 ) ) ;
#235 = FACE_OUTER_BOUND ( 'NONE', #198, .T. ) ;
#236 = ORIENTED_EDGE ( 'NONE', *, *, #33, .F. ) ;
#237 = AXIS2_PLACEMENT_3D ( 'NONE', #164, #220, #74 ) ;
#238 = CARTESIAN_POINT ( 'NONE',  ( 2.433562493173664138E-13, -7.316389877191761450E-15, 69.70000000000001705 ) ) ;
#239 = PRODUCT_DEFINITION_SHAPE ( 'NONE', 'NONE',  #59 ) ;
#240 = CARTESIAN_POINT ( 'NONE',  ( 3.537441754194551547E-14, 2.048999999999998600, 10.13163586137523708 ) ) ;
#241 = CARTESIAN_POINT ( 'NONE',  ( 3.995877808922805094E-30, 6.880356904841864027E-31, 1.144464890723660142E-15 ) ) ;
#242 = LOCAL_TIME ( 14, 2, 26.00000000000000000, #22 ) ;
#243 = CARTESIAN_POINT ( 'NONE',  ( 2.433562493173664138E-13, 1.499999999999990230, 69.70000000000001705 ) ) ;
ENDSEC;
END-ISO-10303-21;
