ISO-10303-21;
HEADER;
FILE_DESCRIPTION (( 'STEP AP203' ),
    '1' );
FILE_NAME ('321312.step',
    '2021-11-26T13:02:25',
    ( '' ),
    ( '' ),
    'SwSTEP 2.0',
    'SolidWorks 2019',
    '' );
FILE_SCHEMA (( 'CONFIG_CONTROL_DESIGN' ));
ENDSEC;

DATA;
#1 = EDGE_CURVE ( 'NONE', #34, #34, #139, .T. ) ;
#2 = APPROVAL_DATE_TIME ( #181, #35 ) ;
#3 = DIRECTION ( 'NONE',  ( -3.491481338843133355E-15, 1.049697256412017316E-16, -1.000000000000000000 ) ) ;
#4 = EDGE_LOOP ( 'NONE', ( #6 ) ) ;
#5 = ORIENTED_EDGE ( 'NONE', *, *, #20, .T. ) ;
#6 = ORIENTED_EDGE ( 'NONE', *, *, #20, .F. ) ;
#7 = EDGE_LOOP ( 'NONE', ( #175 ) ) ;
#8 = DIRECTION ( 'NONE',  ( -3.491481338843133355E-15, 1.049697256412017316E-16, -1.000000000000000000 ) ) ;
#9 = FACE_OUTER_BOUND ( 'NONE', #60, .T. ) ;
#10 = AXIS2_PLACEMENT_3D ( 'NONE', #67, #51, #64 ) ;
#11 = AXIS2_PLACEMENT_3D ( 'NONE', #217, #28, #84 ) ;
#12 = CYLINDRICAL_SURFACE ( 'NONE', #21, 1.499999999999995337 ) ;
#13 = CARTESIAN_POINT ( 'NONE',  ( -1.892735826383161356E-31, 1.899662432702592829, -5.421010862427522170E-17 ) ) ;
#14 = CC_DESIGN_PERSON_AND_ORGANIZATION_ASSIGNMENT ( #57, #130, ( #77 ) ) ;
#15 = PERSON_AND_ORGANIZATION ( #161, #37 ) ;
#16 = PERSON_AND_ORGANIZATION ( #161, #37 ) ;
#17 = DATE_AND_TIME ( #91, #70 ) ;
#18 = PERSON_AND_ORGANIZATION ( #161, #37 ) ;
#19 = DIRECTION ( 'NONE',  ( 0.0000000000000000000, 1.000000000000000000, 0.0000000000000000000 ) ) ;
#20 = EDGE_CURVE ( 'NONE', #122, #122, #26, .T. ) ;
#21 = AXIS2_PLACEMENT_3D ( 'NONE', #236, #120, #196 ) ;
#22 = EDGE_LOOP ( 'NONE', ( #97 ) ) ;
#23 = FACE_OUTER_BOUND ( 'NONE', #24, .T. ) ;
#24 = EDGE_LOOP ( 'NONE', ( #95 ) ) ;
#25 = EDGE_LOOP ( 'NONE', ( #46 ) ) ;
#26 = CIRCLE ( 'NONE', #147, 1.499999999999992673 ) ;
#27 = CARTESIAN_POINT ( 'NONE',  ( 3.793378058519113217E-30, 6.523828924235178240E-31, 1.086466657094037478E-15 ) ) ;
#28 = DIRECTION ( 'NONE',  ( -3.491481338843133355E-15, -6.004628749201014794E-16, -1.000000000000000000 ) ) ;
#29 = FACE_OUTER_BOUND ( 'NONE', #187, .T. ) ;
#30 = DESIGN_CONTEXT ( 'detailed design', #38, 'design' ) ;
#31 = AXIS2_PLACEMENT_3D ( 'NONE', #178, #49, #53 ) ;
#32 = CC_DESIGN_SECURITY_CLASSIFICATION ( #190, ( #77 ) ) ;
#33 = CARTESIAN_POINT ( 'NONE',  ( 2.444036937190193601E-13, -7.347880794884121511E-15, 70.00000000000000000 ) ) ;
#34 = VERTEX_POINT ( 'NONE', #103 ) ;
#35 = APPROVAL ( #124, 'UNSPECIFIED' ) ;
#36 = PERSON_AND_ORGANIZATION ( #161, #37 ) ;
#37 = ORGANIZATION ( 'UNSPECIFIED', 'UNSPECIFIED', '' ) ;
#38 = APPLICATION_CONTEXT ( 'configuration controlled 3d designs of mechanical parts and assemblies' ) ;
#39 = ADVANCED_FACE ( 'NONE', ( #23 ), #138, .T. ) ;
#40 = APPROVAL_ROLE ( '' ) ;
#41 = APPROVAL_STATUS ( 'not_yet_approved' ) ;
#42 = CC_DESIGN_PERSON_AND_ORGANIZATION_ASSIGNMENT ( #16, #201, ( #121 ) ) ;
#43 = DIRECTION ( 'NONE',  ( 0.0000000000000000000, 1.000000000000000000, 0.0000000000000000000 ) ) ;
#44 = CONICAL_SURFACE ( 'NONE', #74, 1.499999999999997558, 0.7853981633974573828 ) ;
#45 = CC_DESIGN_DATE_AND_TIME_ASSIGNMENT ( #17, #111, ( #190 ) ) ;
#46 = ORIENTED_EDGE ( 'NONE', *, *, #213, .T. ) ;
#47 = FACE_BOUND ( 'NONE', #115, .T. ) ;
#48 = CARTESIAN_POINT ( 'NONE',  ( 3.540465465730829683E-14, -1.064424101155455119E-15, 10.14029611541308284 ) ) ;
#49 = DIRECTION ( 'NONE',  ( 3.491481338843133355E-15, 6.004628749201014794E-16, 1.000000000000000000 ) ) ;
#50 = FACE_OUTER_BOUND ( 'NONE', #7, .T. ) ;
#51 = DIRECTION ( 'NONE',  ( -3.491481338843133355E-15, 1.049697256412017316E-16, -1.000000000000000000 ) ) ;
#52 = CIRCLE ( 'NONE', #10, 1.499999999999997558 ) ;
#53 = DIRECTION ( 'NONE',  ( 2.096504922451632967E-30, -1.000000000000000000, 6.004628749201014794E-16 ) ) ;
#54 = PERSON_AND_ORGANIZATION_ROLE ( 'creator' ) ;
#55 = CIRCLE ( 'NONE', #11, 2.043999999999992934 ) ;
#56 = APPROVAL_ROLE ( '' ) ;
#57 = PERSON_AND_ORGANIZATION ( #161, #37 ) ;
#58 = PERSON_AND_ORGANIZATION ( #161, #37 ) ;
#59 = EDGE_CURVE ( 'NONE', #198, #198, #164, .T. ) ;
#60 = EDGE_LOOP ( 'NONE', ( #172 ) ) ;
#61 = CARTESIAN_POINT ( 'NONE',  ( 3.793378058519113217E-30, 6.523828924235178240E-31, 1.086466657094037478E-15 ) ) ;
#62 = DIRECTION ( 'NONE',  ( -3.491481338843133355E-15, -6.004628749201014794E-16, -1.000000000000000000 ) ) ;
#63 = EDGE_LOOP ( 'NONE', ( #208 ) ) ;
#64 = DIRECTION ( 'NONE',  ( 0.0000000000000000000, 1.000000000000000000, 0.0000000000000000000 ) ) ;
#65 = ADVANCED_FACE ( 'NONE', ( #114, #99 ), #44, .T. ) ;
#66 = AXIS2_PLACEMENT_3D ( 'NONE', #152, #228, #154 ) ;
#67 = CARTESIAN_POINT ( 'NONE',  ( 2.433562493173664138E-13, -7.316389877191761450E-15, 69.70000000000001705 ) ) ;
#68 = CARTESIAN_POINT ( 'NONE',  ( -2.085962611897872722E-30, 1.899662432702592829, -5.974434371712939606E-16 ) ) ;
#69 = DIRECTION ( 'NONE',  ( 0.0000000000000000000, 1.000000000000000000, 0.0000000000000000000 ) ) ;
#70 = LOCAL_TIME ( 14, 2, 25.00000000000000000, #88 ) ;
#71 = COORDINATED_UNIVERSAL_TIME_OFFSET ( 1, 0, .AHEAD. ) ;
#72 = MECHANICAL_CONTEXT ( 'NONE', #242, 'mechanical' ) ;
#73 = DIRECTION ( 'NONE',  ( 1.000000000000000000, 0.0000000000000000000, 0.0000000000000000000 ) ) ;
#74 = AXIS2_PLACEMENT_3D ( 'NONE', #212, #230, #19 ) ;
#75 = EDGE_LOOP ( 'NONE', ( #207 ) ) ;
#76 = ORIENTED_EDGE ( 'NONE', *, *, #162, .F. ) ;
#77 = PRODUCT_DEFINITION_FORMATION_WITH_SPECIFIED_SOURCE ( 'ANY', '', #121, .NOT_KNOWN. ) ;
#78 = DIRECTION ( 'NONE',  ( -3.664998382197393967E-31, -1.000000000000000000, -1.049697256412017316E-16 ) ) ;
#79 = EDGE_LOOP ( 'NONE', ( #211 ) ) ;
#80 = APPROVAL ( #222, 'UNSPECIFIED' ) ;
#81 = CARTESIAN_POINT ( 'NONE',  ( 8.728703347107877762E-16, 1.501157187300261094E-16, 0.2500000000000012768 ) ) ;
#82 = CARTESIAN_POINT ( 'NONE',  ( 2.433562493173664138E-13, 1.499999999999990230, 69.70000000000001705 ) ) ;
#83 = AXIS2_PLACEMENT_3D ( 'NONE', #233, #123, #141 ) ;
#84 = DIRECTION ( 'NONE',  ( -3.015154511760849202E-30, 1.000000000000000000, -8.486905459769143916E-16 ) ) ;
#85 = ADVANCED_FACE ( 'NONE', ( #112 ), #174, .T. ) ;
#86 = VERTEX_POINT ( 'NONE', #140 ) ;
#87 = VERTEX_POINT ( 'NONE', #214 ) ;
#88 = COORDINATED_UNIVERSAL_TIME_OFFSET ( 1, 0, .AHEAD. ) ;
#89 = CC_DESIGN_PERSON_AND_ORGANIZATION_ASSIGNMENT ( #15, #54, ( #77 ) ) ;
#90 = PERSON_AND_ORGANIZATION_ROLE ( 'creator' ) ;
#91 = CALENDAR_DATE ( 2021, 26, 11 ) ;
#92 = DIRECTION ( 'NONE',  ( 0.0000000000000000000, 0.0000000000000000000, 1.000000000000000000 ) ) ;
#93 = ADVANCED_FACE ( 'NONE', ( #47, #98 ), #202, .T. ) ;
#94 = PERSON_AND_ORGANIZATION ( #161, #37 ) ;
#95 = ORIENTED_EDGE ( 'NONE', *, *, #155, .F. ) ;
#96 = AXIS2_PLACEMENT_3D ( 'NONE', #27, #215, #106 ) ;
#97 = ORIENTED_EDGE ( 'NONE', *, *, #1, .F. ) ;
#98 = FACE_OUTER_BOUND ( 'NONE', #22, .T. ) ;
#99 = FACE_OUTER_BOUND ( 'NONE', #63, .T. ) ;
#100 = DIRECTION ( 'NONE',  ( 0.0000000000000000000, 1.000000000000000000, 0.0000000000000000000 ) ) ;
#101 = PLANE ( 'NONE',  #209 ) ;
#102 =( NAMED_UNIT ( * ) SI_UNIT ( $, .STERADIAN. ) SOLID_ANGLE_UNIT ( ) );
#103 = CARTESIAN_POINT ( 'NONE',  ( 3.540465465730829683E-14, 2.043999999999999151, 10.14029611541308284 ) ) ;
#104 = CYLINDRICAL_SURFACE ( 'NONE', #83, 2.043999999999996042 ) ;
#105 = ADVANCED_BREP_SHAPE_REPRESENTATION ( '321312', ( #238, #239, #218 ), #186 ) ;
#106 = DIRECTION ( 'NONE',  ( 2.096504922451632617E-30, -1.000000000000000000, 6.004628749201014794E-16 ) ) ;
#107 = PERSON_AND_ORGANIZATION ( #161, #37 ) ;
#108 = ADVANCED_FACE ( 'NONE', ( #134, #177 ), #118, .T. ) ;
#109 = DATE_AND_TIME ( #200, #189 ) ;
#110 = CALENDAR_DATE ( 2021, 26, 11 ) ;
#111 = DATE_TIME_ROLE ( 'classification_date' ) ;
#112 = FACE_OUTER_BOUND ( 'NONE', #210, .T. ) ;
#113 = LOCAL_TIME ( 14, 2, 25.00000000000000000, #71 ) ;
#114 = FACE_BOUND ( 'NONE', #79, .T. ) ;
#115 = EDGE_LOOP ( 'NONE', ( #5 ) ) ;
#116 = CARTESIAN_POINT ( 'NONE',  ( 2.444036937190193601E-13, -7.347880794884121511E-15, 70.00000000000000000 ) ) ;
#117 = PRODUCT_RELATED_PRODUCT_CATEGORY ( 'detail', '', ( #121 ) ) ;
#118 = CONICAL_SURFACE ( 'NONE', #96, 1.899662432702592829, 0.5235987755982975944 ) ;
#119 = APPROVAL_PERSON_ORGANIZATION ( #107, #80, #56 ) ;
#120 = DIRECTION ( 'NONE',  ( -3.491481338843133355E-15, 1.049697256412017316E-16, -1.000000000000000000 ) ) ;
#121 = PRODUCT ( '321312', '321312', '', ( #72 ) ) ;
#122 = VERTEX_POINT ( 'NONE', #163 ) ;
#123 = DIRECTION ( 'NONE',  ( -3.491481338843133355E-15, -6.004628749201014794E-16, -1.000000000000000000 ) ) ;
#124 = APPROVAL_STATUS ( 'not_yet_approved' ) ;
#125 = ADVANCED_FACE ( 'NONE', ( #50 ), #199, .T. ) ;
#126 = DATE_AND_TIME ( #241, #113 ) ;
#127 = AXIS2_PLACEMENT_3D ( 'NONE', #81, #142, #176 ) ;
#128 = APPROVAL_DATE_TIME ( #109, #80 ) ;
#129 = ADVANCED_FACE ( 'NONE', ( #9 ), #101, .T. ) ;
#130 = PERSON_AND_ORGANIZATION_ROLE ( 'design_supplier' ) ;
#131 = CLOSED_SHELL ( 'NONE', ( #39, #65, #136, #93, #85 ) ) ;
#132 = CC_DESIGN_APPROVAL ( #35, ( #77 ) ) ;
#133 = DIRECTION ( 'NONE',  ( -3.491481338843133355E-15, 1.049697256412017316E-16, -1.000000000000000000 ) ) ;
#134 = FACE_OUTER_BOUND ( 'NONE', #171, .T. ) ;
#135 = CC_DESIGN_APPROVAL ( #144, ( #190 ) ) ;
#136 = ADVANCED_FACE ( 'NONE', ( #194, #160 ), #12, .T. ) ;
#137 = CARTESIAN_POINT ( 'NONE',  ( 3.540465465730829052E-14, 2.043999999999999151, 10.14029611541308107 ) ) ;
#138 = PLANE ( 'NONE',  #197 ) ;
#139 = CIRCLE ( 'NONE', #66, 2.043999999999999595 ) ;
#140 = CARTESIAN_POINT ( 'NONE',  ( 2.444036937190193601E-13, 1.199999999999990186, 70.00000000000000000 ) ) ;
#141 = DIRECTION ( 'NONE',  ( -2.096504922451632967E-30, 1.000000000000000000, -6.004628749201013808E-16 ) ) ;
#142 = DIRECTION ( 'NONE',  ( -3.491481338843133355E-15, -6.004628749201014794E-16, -1.000000000000000000 ) ) ;
#143 = LOCAL_TIME ( 14, 2, 25.00000000000000000, #224 ) ;
#144 = APPROVAL ( #41, 'UNSPECIFIED' ) ;
#145 = CARTESIAN_POINT ( 'NONE',  ( 8.728703347107835360E-16, 2.043999999999999151, 0.2500000000000000000 ) ) ;
#146 = CALENDAR_DATE ( 2021, 26, 11 ) ;
#147 = AXIS2_PLACEMENT_3D ( 'NONE', #158, #231, #100 ) ;
#148 = LOCAL_TIME ( 14, 2, 25.00000000000000000, #225 ) ;
#149 = APPLICATION_PROTOCOL_DEFINITION ( 'international standard', 'config_control_design', 1994, #38 ) ;
#150 = UNCERTAINTY_MEASURE_WITH_UNIT (LENGTH_MEASURE( 1.000000000000000082E-05 ), #195, 'distance_accuracy_value', 'NONE');
#151 = CC_DESIGN_DATE_AND_TIME_ASSIGNMENT ( #204, #221, ( #216 ) ) ;
#152 = CARTESIAN_POINT ( 'NONE',  ( 3.540465465730829683E-14, -1.064424101155455119E-15, 10.14029611541308284 ) ) ;
#153 = ORIENTED_EDGE ( 'NONE', *, *, #1, .T. ) ;
#154 = DIRECTION ( 'NONE',  ( 0.0000000000000000000, 1.000000000000000000, 0.0000000000000000000 ) ) ;
#155 = EDGE_CURVE ( 'NONE', #86, #86, #226, .T. ) ;
#156 = AXIS2_PLACEMENT_3D ( 'NONE', #61, #62, #170 ) ;
#157 = ORIENTED_EDGE ( 'NONE', *, *, #162, .T. ) ;
#158 = CARTESIAN_POINT ( 'NONE',  ( 3.869445280877825183E-14, -1.163330317703974635E-15, 11.08253175473057617 ) ) ;
#159 = DIRECTION ( 'NONE',  ( -2.096504922451632967E-30, 1.000000000000000000, -6.004628749201014794E-16 ) ) ;
#160 = FACE_OUTER_BOUND ( 'NONE', #4, .T. ) ;
#161 = PERSON ( 'UNSPECIFIED', 'UNSPECIFIED', 'UNSPECIFIED', ('UNSPECIFIED'), ('UNSPECIFIED'), ('UNSPECIFIED') ) ;
#162 = EDGE_CURVE ( 'NONE', #235, #235, #167, .T. ) ;
#163 = CARTESIAN_POINT ( 'NONE',  ( 3.869445280877825183E-14, 1.499999999999991562, 11.08253175473057617 ) ) ;
#164 = CIRCLE ( 'NONE', #156, 1.899662432702592829 ) ;
#165 = CC_DESIGN_APPROVAL ( #80, ( #216 ) ) ;
#166 = PERSON_AND_ORGANIZATION_ROLE ( 'classification_officer' ) ;
#167 = CIRCLE ( 'NONE', #127, 2.043999999999999151 ) ;
#168 = SECURITY_CLASSIFICATION_LEVEL ( 'unclassified' ) ;
#169 = SHAPE_DEFINITION_REPRESENTATION ( #229, #105 ) ;
#170 = DIRECTION ( 'NONE',  ( -2.096504922451632967E-30, 1.000000000000000000, -6.004628749201014794E-16 ) ) ;
#171 = EDGE_LOOP ( 'NONE', ( #157 ) ) ;
#172 = ORIENTED_EDGE ( 'NONE', *, *, #59, .T. ) ;
#173 = CC_DESIGN_PERSON_AND_ORGANIZATION_ASSIGNMENT ( #94, #166, ( #190 ) ) ;
#174 = PLANE ( 'NONE',  #193 ) ;
#175 = ORIENTED_EDGE ( 'NONE', *, *, #203, .F. ) ;
#176 = DIRECTION ( 'NONE',  ( -2.072918726835577564E-30, 1.000000000000000000, -6.099963299209053762E-16 ) ) ;
#177 = FACE_BOUND ( 'NONE', #191, .T. ) ;
#178 = CARTESIAN_POINT ( 'NONE',  ( 3.540465465730829052E-14, 6.088871358002076861E-15, 10.14029611541308107 ) ) ;
#179 = ADVANCED_FACE ( 'NONE', ( #240, #29 ), #104, .T. ) ;
#180 = VERTEX_POINT ( 'NONE', #82 ) ;
#181 = DATE_AND_TIME ( #146, #143 ) ;
#182 = CLOSED_SHELL ( 'NONE', ( #125, #179, #108, #129 ) ) ;
#183 = CARTESIAN_POINT ( 'NONE',  ( 0.0000000000000000000, 0.0000000000000000000, 0.0000000000000000000 ) ) ;
#184 = COORDINATED_UNIVERSAL_TIME_OFFSET ( 1, 0, .AHEAD. ) ;
#185 = APPLICATION_PROTOCOL_DEFINITION ( 'international standard', 'config_control_design', 1994, #242 ) ;
#186 =( GEOMETRIC_REPRESENTATION_CONTEXT ( 3 ) GLOBAL_UNCERTAINTY_ASSIGNED_CONTEXT ( ( #150 ) ) GLOBAL_UNIT_ASSIGNED_CONTEXT ( ( #195, #220, #102 ) ) REPRESENTATION_CONTEXT ( 'NONE', 'WORKASPACE' ) );
#187 = EDGE_LOOP ( 'NONE', ( #76 ) ) ;
#188 = AXIS2_PLACEMENT_3D ( 'NONE', #33, #8, #69 ) ;
#189 = LOCAL_TIME ( 14, 2, 25.00000000000000000, #184 ) ;
#190 = SECURITY_CLASSIFICATION ( '', '', #168 ) ;
#191 = EDGE_LOOP ( 'NONE', ( #192 ) ) ;
#192 = ORIENTED_EDGE ( 'NONE', *, *, #59, .F. ) ;
#193 = AXIS2_PLACEMENT_3D ( 'NONE', #137, #3, #227 ) ;
#194 = FACE_OUTER_BOUND ( 'NONE', #25, .T. ) ;
#195 =( LENGTH_UNIT ( ) NAMED_UNIT ( * ) SI_UNIT ( .MILLI., .METRE. ) );
#196 = DIRECTION ( 'NONE',  ( 3.664998382197393967E-31, 1.000000000000000000, 1.049697256412017316E-16 ) ) ;
#197 = AXIS2_PLACEMENT_3D ( 'NONE', #116, #232, #78 ) ;
#198 = VERTEX_POINT ( 'NONE', #13 ) ;
#199 = PLANE ( 'NONE',  #31 ) ;
#200 = CALENDAR_DATE ( 2021, 26, 11 ) ;
#201 = PERSON_AND_ORGANIZATION_ROLE ( 'design_owner' ) ;
#202 = CONICAL_SURFACE ( 'NONE', #234, 2.043999999999999595, 0.5235987755982938197 ) ;
#203 = EDGE_CURVE ( 'NONE', #87, #87, #55, .T. ) ;
#204 = DATE_AND_TIME ( #110, #148 ) ;
#205 = APPROVAL_ROLE ( '' ) ;
#206 = CC_DESIGN_PERSON_AND_ORGANIZATION_ASSIGNMENT ( #36, #90, ( #216 ) ) ;
#207 = ORIENTED_EDGE ( 'NONE', *, *, #203, .T. ) ;
#208 = ORIENTED_EDGE ( 'NONE', *, *, #213, .F. ) ;
#209 = AXIS2_PLACEMENT_3D ( 'NONE', #68, #237, #159 ) ;
#210 = EDGE_LOOP ( 'NONE', ( #153 ) ) ;
#211 = ORIENTED_EDGE ( 'NONE', *, *, #155, .T. ) ;
#212 = CARTESIAN_POINT ( 'NONE',  ( 2.433562493173664138E-13, -7.316389877191761450E-15, 69.70000000000001705 ) ) ;
#213 = EDGE_CURVE ( 'NONE', #180, #180, #52, .T. ) ;
#214 = CARTESIAN_POINT ( 'NONE',  ( 3.540465465730829683E-14, 2.043999999999999151, 10.14029611541308284 ) ) ;
#215 = DIRECTION ( 'NONE',  ( 3.491481338843133355E-15, 6.004628749201014794E-16, 1.000000000000000000 ) ) ;
#216 = PRODUCT_DEFINITION ( 'UNKNOWN', '', #77, #30 ) ;
#217 = CARTESIAN_POINT ( 'NONE',  ( 3.540465465730830314E-14, 6.088871358002078439E-15, 10.14029611541308462 ) ) ;
#218 = AXIS2_PLACEMENT_3D ( 'NONE', #183, #92, #73 ) ;
#219 = APPROVAL_PERSON_ORGANIZATION ( #58, #35, #40 ) ;
#220 =( NAMED_UNIT ( * ) PLANE_ANGLE_UNIT ( ) SI_UNIT ( $, .RADIAN. ) );
#221 = DATE_TIME_ROLE ( 'creation_date' ) ;
#222 = APPROVAL_STATUS ( 'not_yet_approved' ) ;
#223 = APPROVAL_PERSON_ORGANIZATION ( #18, #144, #205 ) ;
#224 = COORDINATED_UNIVERSAL_TIME_OFFSET ( 1, 0, .AHEAD. ) ;
#225 = COORDINATED_UNIVERSAL_TIME_OFFSET ( 1, 0, .AHEAD. ) ;
#226 = CIRCLE ( 'NONE', #188, 1.199999999999997513 ) ;
#227 = DIRECTION ( 'NONE',  ( 3.664998382197393967E-31, 1.000000000000000000, 1.049697256412017316E-16 ) ) ;
#228 = DIRECTION ( 'NONE',  ( -3.491481338843133355E-15, 1.049697256412017316E-16, -1.000000000000000000 ) ) ;
#229 = PRODUCT_DEFINITION_SHAPE ( 'NONE', 'NONE',  #216 ) ;
#230 = DIRECTION ( 'NONE',  ( -3.491481338843133355E-15, 1.049697256412017316E-16, -1.000000000000000000 ) ) ;
#231 = DIRECTION ( 'NONE',  ( -3.491481338843133355E-15, 1.049697256412017316E-16, -1.000000000000000000 ) ) ;
#232 = DIRECTION ( 'NONE',  ( 3.491481338843133355E-15, -1.049697256412017316E-16, 1.000000000000000000 ) ) ;
#233 = CARTESIAN_POINT ( 'NONE',  ( 0.0000000000000000000, 0.0000000000000000000, 0.0000000000000000000 ) ) ;
#234 = AXIS2_PLACEMENT_3D ( 'NONE', #48, #133, #43 ) ;
#235 = VERTEX_POINT ( 'NONE', #145 ) ;
#236 = CARTESIAN_POINT ( 'NONE',  ( 0.0000000000000000000, 0.0000000000000000000, 0.0000000000000000000 ) ) ;
#237 = DIRECTION ( 'NONE',  ( -3.491481338843133355E-15, -6.004628749201014794E-16, -1.000000000000000000 ) ) ;
#238 = MANIFOLD_SOLID_BREP ( 'Corps-Déplacer/Copier1[1]', #131 ) ;
#239 = MANIFOLD_SOLID_BREP ( 'Corps-Déplacer/Copier1[2]', #182 ) ;
#240 = FACE_OUTER_BOUND ( 'NONE', #75, .T. ) ;
#241 = CALENDAR_DATE ( 2021, 26, 11 ) ;
#242 = APPLICATION_CONTEXT ( 'configuration controlled 3d designs of mechanical parts and assemblies' ) ;
#243 = APPROVAL_DATE_TIME ( #126, #144 ) ;
ENDSEC;
END-ISO-10303-21;
