ISO-10303-21;
HEADER;
FILE_DESCRIPTION (( 'STEP AP203' ),
    '1' );
FILE_NAME ('321311.step',
    '2021-11-26T13:02:25',
    ( '' ),
    ( '' ),
    'SwSTEP 2.0',
    'SolidWorks 2019',
    '' );
FILE_SCHEMA (( 'CONFIG_CONTROL_DESIGN' ));
ENDSEC;

DATA;
#1 = DIRECTION ( 'NONE',  ( 3.491481338843133355E-15, -1.049697256412017316E-16, 1.000000000000000000 ) ) ;
#2 = FACE_BOUND ( 'NONE', #233, .T. ) ;
#3 = AXIS2_PLACEMENT_3D ( 'NONE', #241, #16, #23 ) ;
#4 = APPROVAL_ROLE ( '' ) ;
#5 = PERSON_AND_ORGANIZATION ( #221, #97 ) ;
#6 = PERSON_AND_ORGANIZATION ( #221, #97 ) ;
#7 = CARTESIAN_POINT ( 'NONE',  ( 3.869445280877825183E-14, -1.163330317703974635E-15, 11.08253175473057617 ) ) ;
#8 = CARTESIAN_POINT ( 'NONE',  ( -2.078335302152042406E-30, 1.894662432702592492, -5.952588888361859491E-16 ) ) ;
#9 = PERSON_AND_ORGANIZATION ( #221, #97 ) ;
#10 = ADVANCED_FACE ( 'NONE', ( #2, #133 ), #82, .T. ) ;
#11 = ORIENTED_EDGE ( 'NONE', *, *, #57, .F. ) ;
#12 = COORDINATED_UNIVERSAL_TIME_OFFSET ( 1, 0, .AHEAD. ) ;
#13 = ORIENTED_EDGE ( 'NONE', *, *, #234, .T. ) ;
#14 = CIRCLE ( 'NONE', #226, 2.038999999999992596 ) ;
#15 = ADVANCED_FACE ( 'NONE', ( #206 ), #76, .T. ) ;
#16 = DIRECTION ( 'NONE',  ( 3.491481338843133355E-15, 5.997414892674257866E-16, 1.000000000000000000 ) ) ;
#17 = EDGE_LOOP ( 'NONE', ( #166 ) ) ;
#18 = APPROVAL_PERSON_ORGANIZATION ( #102, #191, #4 ) ;
#19 = EDGE_CURVE ( 'NONE', #29, #29, #14, .T. ) ;
#20 = FACE_OUTER_BOUND ( 'NONE', #130, .T. ) ;
#21 = PRODUCT ( '321311', '321311', '', ( #123 ) ) ;
#22 = DIRECTION ( 'NONE',  ( -2.093986217907206984E-30, 1.000000000000000000, -5.997414892674257866E-16 ) ) ;
#23 = DIRECTION ( 'NONE',  ( 2.093986217907206984E-30, -1.000000000000000000, 5.997414892674257866E-16 ) ) ;
#24 = APPLICATION_PROTOCOL_DEFINITION ( 'international standard', 'config_control_design', 1994, #155 ) ;
#25 = CC_DESIGN_SECURITY_CLASSIFICATION ( #110, ( #211 ) ) ;
#26 = DATE_AND_TIME ( #217, #240 ) ;
#27 = DIRECTION ( 'NONE',  ( -3.491481338843133355E-15, 1.049697256412017316E-16, -1.000000000000000000 ) ) ;
#28 = CONICAL_SURFACE ( 'NONE', #3, 1.894662432702592492, 0.5235987755982975944 ) ;
#29 = VERTEX_POINT ( 'NONE', #88 ) ;
#30 = DATE_AND_TIME ( #186, #146 ) ;
#31 = CC_DESIGN_PERSON_AND_ORGANIZATION_ASSIGNMENT ( #84, #160, ( #33 ) ) ;
#32 = ORIENTED_EDGE ( 'NONE', *, *, #234, .F. ) ;
#33 = PRODUCT_DEFINITION ( 'UNKNOWN', '', #211, #89 ) ;
#34 = DIRECTION ( 'NONE',  ( -3.022548220715633652E-30, 1.000000000000000000, -8.507716900327677133E-16 ) ) ;
#35 = AXIS2_PLACEMENT_3D ( 'NONE', #153, #40, #210 ) ;
#36 = FACE_OUTER_BOUND ( 'NONE', #202, .T. ) ;
#37 = ADVANCED_FACE ( 'NONE', ( #193, #190 ), #28, .T. ) ;
#38 = CARTESIAN_POINT ( 'NONE',  ( 8.728703347107877762E-16, 1.499353723168571862E-16, 0.2500000000000012768 ) ) ;
#39 = CIRCLE ( 'NONE', #203, 2.038999999999998813 ) ;
#40 = DIRECTION ( 'NONE',  ( -3.491481338843133355E-15, 1.049697256412017316E-16, -1.000000000000000000 ) ) ;
#41 = CARTESIAN_POINT ( 'NONE',  ( 2.433562493173664138E-13, -7.316389877191761450E-15, 69.70000000000001705 ) ) ;
#42 = CARTESIAN_POINT ( 'NONE',  ( 3.869445280877825183E-14, 1.499999999999991562, 11.08253175473057617 ) ) ;
#43 = VERTEX_POINT ( 'NONE', #183 ) ;
#44 = DATE_AND_TIME ( #137, #149 ) ;
#45 = CLOSED_SHELL ( 'NONE', ( #15, #197, #37, #229 ) ) ;
#46 = PERSON_AND_ORGANIZATION ( #221, #97 ) ;
#47 = CIRCLE ( 'NONE', #115, 1.894662432702592492 ) ;
#48 = LOCAL_TIME ( 14, 2, 25.00000000000000000, #12 ) ;
#49 = ORIENTED_EDGE ( 'NONE', *, *, #19, .T. ) ;
#50 = CC_DESIGN_PERSON_AND_ORGANIZATION_ASSIGNMENT ( #46, #67, ( #211 ) ) ;
#51 = DIRECTION ( 'NONE',  ( 0.0000000000000000000, 1.000000000000000000, 0.0000000000000000000 ) ) ;
#52 = EDGE_CURVE ( 'NONE', #63, #63, #189, .T. ) ;
#53 = DIRECTION ( 'NONE',  ( 0.0000000000000000000, 1.000000000000000000, 0.0000000000000000000 ) ) ;
#54 = FACE_OUTER_BOUND ( 'NONE', #70, .T. ) ;
#55 = DIRECTION ( 'NONE',  ( 3.664998382197393967E-31, 1.000000000000000000, 1.049697256412017316E-16 ) ) ;
#56 = AXIS2_PLACEMENT_3D ( 'NONE', #99, #209, #55 ) ;
#57 = EDGE_CURVE ( 'NONE', #62, #62, #170, .T. ) ;
#58 = DIRECTION ( 'NONE',  ( 0.0000000000000000000, 0.0000000000000000000, 1.000000000000000000 ) ) ;
#59 = DIRECTION ( 'NONE',  ( -3.664998382197393967E-31, -1.000000000000000000, -1.049697256412017316E-16 ) ) ;
#60 = AXIS2_PLACEMENT_3D ( 'NONE', #239, #222, #98 ) ;
#61 = AXIS2_PLACEMENT_3D ( 'NONE', #192, #1, #59 ) ;
#62 = VERTEX_POINT ( 'NONE', #228 ) ;
#63 = VERTEX_POINT ( 'NONE', #141 ) ;
#64 = CC_DESIGN_APPROVAL ( #72, ( #110 ) ) ;
#65 = APPROVAL_DATE_TIME ( #148, #72 ) ;
#66 = EDGE_LOOP ( 'NONE', ( #127 ) ) ;
#67 = PERSON_AND_ORGANIZATION_ROLE ( 'creator' ) ;
#68 = EDGE_LOOP ( 'NONE', ( #94 ) ) ;
#69 = COORDINATED_UNIVERSAL_TIME_OFFSET ( 1, 0, .AHEAD. ) ;
#70 = EDGE_LOOP ( 'NONE', ( #32 ) ) ;
#71 = CC_DESIGN_APPROVAL ( #191, ( #33 ) ) ;
#72 = APPROVAL ( #128, 'UNSPECIFIED' ) ;
#73 = PERSON_AND_ORGANIZATION ( #221, #97 ) ;
#74 = ORIENTED_EDGE ( 'NONE', *, *, #52, .F. ) ;
#75 = ORIENTED_EDGE ( 'NONE', *, *, #205, .T. ) ;
#76 = PLANE ( 'NONE',  #207 ) ;
#77 = ORIENTED_EDGE ( 'NONE', *, *, #19, .F. ) ;
#78 = CARTESIAN_POINT ( 'NONE',  ( 3.543489177267107187E-14, -1.065333165645790645E-15, 10.14895636945092683 ) ) ;
#79 = EDGE_LOOP ( 'NONE', ( #13 ) ) ;
#80 = ADVANCED_FACE ( 'NONE', ( #173 ), #95, .T. ) ;
#81 = CYLINDRICAL_SURFACE ( 'NONE', #215, 2.038999999999995705 ) ;
#82 = CONICAL_SURFACE ( 'NONE', #35, 1.499999999999997558, 0.7853981633974573828 ) ;
#83 = DIRECTION ( 'NONE',  ( -2.093986217907206634E-30, 1.000000000000000000, -5.997414892674257866E-16 ) ) ;
#84 = PERSON_AND_ORGANIZATION ( #221, #97 ) ;
#85 = CC_DESIGN_DATE_AND_TIME_ASSIGNMENT ( #30, #236, ( #110 ) ) ;
#86 = AXIS2_PLACEMENT_3D ( 'NONE', #7, #27, #107 ) ;
#87 = FACE_OUTER_BOUND ( 'NONE', #114, .T. ) ;
#88 = CARTESIAN_POINT ( 'NONE',  ( 3.543489177267107187E-14, 2.038999999999998813, 10.14895636945092683 ) ) ;
#89 = DESIGN_CONTEXT ( 'detailed design', #155, 'design' ) ;
#90 = PERSON_AND_ORGANIZATION_ROLE ( 'classification_officer' ) ;
#91 = EDGE_LOOP ( 'NONE', ( #77 ) ) ;
#92 = APPROVAL_DATE_TIME ( #220, #152 ) ;
#93 = CALENDAR_DATE ( 2021, 26, 11 ) ;
#94 = ORIENTED_EDGE ( 'NONE', *, *, #205, .F. ) ;
#95 = PLANE ( 'NONE',  #56 ) ;
#96 = DIRECTION ( 'NONE',  ( -3.491481338843133355E-15, 1.049697256412017316E-16, -1.000000000000000000 ) ) ;
#97 = ORGANIZATION ( 'UNSPECIFIED', 'UNSPECIFIED', '' ) ;
#98 = DIRECTION ( 'NONE',  ( 3.664998382197393967E-31, 1.000000000000000000, 1.049697256412017316E-16 ) ) ;
#99 = CARTESIAN_POINT ( 'NONE',  ( 3.543489177267107187E-14, 2.038999999999998813, 10.14895636945092861 ) ) ;
#100 = ADVANCED_FACE ( 'NONE', ( #154, #54 ), #135, .T. ) ;
#101 = DIRECTION ( 'NONE',  ( -3.491481338843133355E-15, 1.049697256412017316E-16, -1.000000000000000000 ) ) ;
#102 = PERSON_AND_ORGANIZATION ( #221, #97 ) ;
#103 = APPLICATION_PROTOCOL_DEFINITION ( 'international standard', 'config_control_design', 1994, #145 ) ;
#104 = MANIFOLD_SOLID_BREP ( 'Corps-Déplacer/Copier1[1]', #237 ) ;
#105 = MANIFOLD_SOLID_BREP ( 'Corps-Déplacer/Copier1[2]', #45 ) ;
#106 = CC_DESIGN_APPROVAL ( #152, ( #211 ) ) ;
#107 = DIRECTION ( 'NONE',  ( 0.0000000000000000000, 1.000000000000000000, 0.0000000000000000000 ) ) ;
#108 = VERTEX_POINT ( 'NONE', #140 ) ;
#109 = PRODUCT_RELATED_PRODUCT_CATEGORY ( 'detail', '', ( #21 ) ) ;
#110 = SECURITY_CLASSIFICATION ( '', '', #169 ) ;
#111 = AXIS2_PLACEMENT_3D ( 'NONE', #165, #58, #136 ) ;
#112 = EDGE_LOOP ( 'NONE', ( #116 ) ) ;
#113 = ADVANCED_FACE ( 'NONE', ( #208, #223 ), #147, .T. ) ;
#114 = EDGE_LOOP ( 'NONE', ( #235 ) ) ;
#115 = AXIS2_PLACEMENT_3D ( 'NONE', #134, #176, #22 ) ;
#116 = ORIENTED_EDGE ( 'NONE', *, *, #119, .F. ) ;
#117 = CARTESIAN_POINT ( 'NONE',  ( 0.0000000000000000000, 0.0000000000000000000, 0.0000000000000000000 ) ) ;
#118 = DIRECTION ( 'NONE',  ( -2.078001901741991764E-30, 1.000000000000000000, -6.114921522110499234E-16 ) ) ;
#119 = EDGE_CURVE ( 'NONE', #43, #43, #47, .T. ) ;
#120 = DIRECTION ( 'NONE',  ( 0.0000000000000000000, 1.000000000000000000, 0.0000000000000000000 ) ) ;
#121 = VERTEX_POINT ( 'NONE', #42 ) ;
#122 =( NAMED_UNIT ( * ) SI_UNIT ( $, .STERADIAN. ) SOLID_ANGLE_UNIT ( ) );
#123 = MECHANICAL_CONTEXT ( 'NONE', #145, 'mechanical' ) ;
#124 = EDGE_CURVE ( 'NONE', #108, #108, #39, .T. ) ;
#125 = PERSON_AND_ORGANIZATION ( #221, #97 ) ;
#126 = PERSON_AND_ORGANIZATION_ROLE ( 'design_supplier' ) ;
#127 = ORIENTED_EDGE ( 'NONE', *, *, #52, .T. ) ;
#128 = APPROVAL_STATUS ( 'not_yet_approved' ) ;
#129 = CIRCLE ( 'NONE', #194, 2.038999999999999702 ) ;
#130 = EDGE_LOOP ( 'NONE', ( #49 ) ) ;
#131 = PLANE ( 'NONE',  #61 ) ;
#132 = DIRECTION ( 'NONE',  ( 2.093986217907206634E-30, -1.000000000000000000, 5.997414892674257866E-16 ) ) ;
#133 = FACE_OUTER_BOUND ( 'NONE', #168, .T. ) ;
#134 = CARTESIAN_POINT ( 'NONE',  ( 3.778123439027452585E-30, 6.489788024212309441E-31, 1.082097560423821455E-15 ) ) ;
#135 = CYLINDRICAL_SURFACE ( 'NONE', #60, 1.499999999999995337 ) ;
#136 = DIRECTION ( 'NONE',  ( 1.000000000000000000, 0.0000000000000000000, 0.0000000000000000000 ) ) ;
#137 = CALENDAR_DATE ( 2021, 26, 11 ) ;
#138 =( GEOMETRIC_REPRESENTATION_CONTEXT ( 3 ) GLOBAL_UNCERTAINTY_ASSIGNED_CONTEXT ( ( #185 ) ) GLOBAL_UNIT_ASSIGNED_CONTEXT ( ( #218, #164, #122 ) ) REPRESENTATION_CONTEXT ( 'NONE', 'WORKASPACE' ) );
#139 = COORDINATED_UNIVERSAL_TIME_OFFSET ( 1, 0, .AHEAD. ) ;
#140 = CARTESIAN_POINT ( 'NONE',  ( 8.728703347107835360E-16, 2.038999999999998813, 0.2500000000000000000 ) ) ;
#141 = CARTESIAN_POINT ( 'NONE',  ( 2.433562493173664138E-13, 1.499999999999990230, 69.70000000000001705 ) ) ;
#142 = SHAPE_DEFINITION_REPRESENTATION ( #242, #181 ) ;
#143 = COORDINATED_UNIVERSAL_TIME_OFFSET ( 1, 0, .AHEAD. ) ;
#144 = EDGE_LOOP ( 'NONE', ( #167 ) ) ;
#145 = APPLICATION_CONTEXT ( 'configuration controlled 3d designs of mechanical parts and assemblies' ) ;
#146 = LOCAL_TIME ( 14, 2, 25.00000000000000000, #143 ) ;
#147 = CONICAL_SURFACE ( 'NONE', #179, 2.038999999999999702, 0.5235987755982931535 ) ;
#148 = DATE_AND_TIME ( #93, #238 ) ;
#149 = LOCAL_TIME ( 14, 2, 25.00000000000000000, #159 ) ;
#150 = EDGE_LOOP ( 'NONE', ( #75 ) ) ;
#151 = APPROVAL_PERSON_ORGANIZATION ( #9, #72, #204 ) ;
#152 = APPROVAL ( #184, 'UNSPECIFIED' ) ;
#153 = CARTESIAN_POINT ( 'NONE',  ( 2.433562493173664138E-13, -7.316389877191761450E-15, 69.70000000000001705 ) ) ;
#154 = FACE_OUTER_BOUND ( 'NONE', #66, .T. ) ;
#155 = APPLICATION_CONTEXT ( 'configuration controlled 3d designs of mechanical parts and assemblies' ) ;
#156 = DIRECTION ( 'NONE',  ( 0.0000000000000000000, 1.000000000000000000, 0.0000000000000000000 ) ) ;
#157 = CARTESIAN_POINT ( 'NONE',  ( 3.543489177267107187E-14, 6.086750207524627561E-15, 10.14895636945092861 ) ) ;
#158 = DIRECTION ( 'NONE',  ( -3.491481338843133355E-15, -5.997414892674257866E-16, -1.000000000000000000 ) ) ;
#159 = COORDINATED_UNIVERSAL_TIME_OFFSET ( 1, 0, .AHEAD. ) ;
#160 = PERSON_AND_ORGANIZATION_ROLE ( 'creator' ) ;
#161 = APPROVAL_PERSON_ORGANIZATION ( #6, #152, #187 ) ;
#162 = PLANE ( 'NONE',  #182 ) ;
#163 = CC_DESIGN_DATE_AND_TIME_ASSIGNMENT ( #26, #180, ( #33 ) ) ;
#164 =( NAMED_UNIT ( * ) PLANE_ANGLE_UNIT ( ) SI_UNIT ( $, .RADIAN. ) );
#165 = CARTESIAN_POINT ( 'NONE',  ( 0.0000000000000000000, 0.0000000000000000000, 0.0000000000000000000 ) ) ;
#166 = ORIENTED_EDGE ( 'NONE', *, *, #124, .T. ) ;
#167 = ORIENTED_EDGE ( 'NONE', *, *, #124, .F. ) ;
#168 = EDGE_LOOP ( 'NONE', ( #74 ) ) ;
#169 = SECURITY_CLASSIFICATION_LEVEL ( 'unclassified' ) ;
#170 = CIRCLE ( 'NONE', #201, 1.199999999999997513 ) ;
#171 = DIRECTION ( 'NONE',  ( -3.491481338843133355E-15, -5.997414892674257866E-16, -1.000000000000000000 ) ) ;
#172 = CC_DESIGN_PERSON_AND_ORGANIZATION_ASSIGNMENT ( #73, #90, ( #110 ) ) ;
#173 = FACE_OUTER_BOUND ( 'NONE', #150, .T. ) ;
#174 = FACE_OUTER_BOUND ( 'NONE', #144, .T. ) ;
#175 = DIRECTION ( 'NONE',  ( -3.491481338843133355E-15, -5.997414892674257866E-16, -1.000000000000000000 ) ) ;
#176 = DIRECTION ( 'NONE',  ( -3.491481338843133355E-15, -5.997414892674257866E-16, -1.000000000000000000 ) ) ;
#177 = APPROVAL_STATUS ( 'not_yet_approved' ) ;
#178 = APPROVAL_DATE_TIME ( #44, #191 ) ;
#179 = AXIS2_PLACEMENT_3D ( 'NONE', #195, #101, #53 ) ;
#180 = DATE_TIME_ROLE ( 'creation_date' ) ;
#181 = ADVANCED_BREP_SHAPE_REPRESENTATION ( '321311', ( #104, #105, #111 ), #138 ) ;
#182 = AXIS2_PLACEMENT_3D ( 'NONE', #8, #214, #83 ) ;
#183 = CARTESIAN_POINT ( 'NONE',  ( -1.892735826383168144E-31, 1.894662432702592492, -5.421010862427522170E-17 ) ) ;
#184 = APPROVAL_STATUS ( 'not_yet_approved' ) ;
#185 = UNCERTAINTY_MEASURE_WITH_UNIT (LENGTH_MEASURE( 1.000000000000000082E-05 ), #218, 'distance_accuracy_value', 'NONE');
#186 = CALENDAR_DATE ( 2021, 26, 11 ) ;
#187 = APPROVAL_ROLE ( '' ) ;
#188 = ORIENTED_EDGE ( 'NONE', *, *, #57, .T. ) ;
#189 = CIRCLE ( 'NONE', #219, 1.499999999999997558 ) ;
#190 = FACE_BOUND ( 'NONE', #112, .T. ) ;
#191 = APPROVAL ( #177, 'UNSPECIFIED' ) ;
#192 = CARTESIAN_POINT ( 'NONE',  ( 2.444036937190193601E-13, -7.347880794884121511E-15, 70.00000000000000000 ) ) ;
#193 = FACE_OUTER_BOUND ( 'NONE', #17, .T. ) ;
#194 = AXIS2_PLACEMENT_3D ( 'NONE', #78, #227, #156 ) ;
#195 = CARTESIAN_POINT ( 'NONE',  ( 3.543489177267107187E-14, -1.065333165645790645E-15, 10.14895636945092683 ) ) ;
#196 = CARTESIAN_POINT ( 'NONE',  ( 2.444036937190193601E-13, -7.347880794884121511E-15, 70.00000000000000000 ) ) ;
#197 = ADVANCED_FACE ( 'NONE', ( #20, #174 ), #81, .T. ) ;
#198 = CC_DESIGN_PERSON_AND_ORGANIZATION_ASSIGNMENT ( #5, #200, ( #21 ) ) ;
#199 = VERTEX_POINT ( 'NONE', #213 ) ;
#200 = PERSON_AND_ORGANIZATION_ROLE ( 'design_owner' ) ;
#201 = AXIS2_PLACEMENT_3D ( 'NONE', #196, #224, #51 ) ;
#202 = EDGE_LOOP ( 'NONE', ( #11 ) ) ;
#203 = AXIS2_PLACEMENT_3D ( 'NONE', #38, #175, #118 ) ;
#204 = APPROVAL_ROLE ( '' ) ;
#205 = EDGE_CURVE ( 'NONE', #199, #199, #129, .T. ) ;
#206 = FACE_OUTER_BOUND ( 'NONE', #91, .T. ) ;
#207 = AXIS2_PLACEMENT_3D ( 'NONE', #157, #225, #132 ) ;
#208 = FACE_BOUND ( 'NONE', #79, .T. ) ;
#209 = DIRECTION ( 'NONE',  ( -3.491481338843133355E-15, 1.049697256412017316E-16, -1.000000000000000000 ) ) ;
#210 = DIRECTION ( 'NONE',  ( 0.0000000000000000000, 1.000000000000000000, 0.0000000000000000000 ) ) ;
#211 = PRODUCT_DEFINITION_FORMATION_WITH_SPECIFIED_SOURCE ( 'ANY', '', #21, .NOT_KNOWN. ) ;
#212 = CARTESIAN_POINT ( 'NONE',  ( 3.543489177267107187E-14, 6.086750207524626773E-15, 10.14895636945092861 ) ) ;
#213 = CARTESIAN_POINT ( 'NONE',  ( 3.543489177267107187E-14, 2.038999999999998813, 10.14895636945092683 ) ) ;
#214 = DIRECTION ( 'NONE',  ( -3.491481338843133355E-15, -5.997414892674257866E-16, -1.000000000000000000 ) ) ;
#215 = AXIS2_PLACEMENT_3D ( 'NONE', #117, #158, #243 ) ;
#216 = ADVANCED_FACE ( 'NONE', ( #36 ), #131, .T. ) ;
#217 = CALENDAR_DATE ( 2021, 26, 11 ) ;
#218 =( LENGTH_UNIT ( ) NAMED_UNIT ( * ) SI_UNIT ( .MILLI., .METRE. ) );
#219 = AXIS2_PLACEMENT_3D ( 'NONE', #41, #96, #120 ) ;
#220 = DATE_AND_TIME ( #232, #48 ) ;
#221 = PERSON ( 'UNSPECIFIED', 'UNSPECIFIED', 'UNSPECIFIED', ('UNSPECIFIED'), ('UNSPECIFIED'), ('UNSPECIFIED') ) ;
#222 = DIRECTION ( 'NONE',  ( -3.491481338843133355E-15, 1.049697256412017316E-16, -1.000000000000000000 ) ) ;
#223 = FACE_OUTER_BOUND ( 'NONE', #68, .T. ) ;
#224 = DIRECTION ( 'NONE',  ( -3.491481338843133355E-15, 1.049697256412017316E-16, -1.000000000000000000 ) ) ;
#225 = DIRECTION ( 'NONE',  ( 3.491481338843133355E-15, 5.997414892674257866E-16, 1.000000000000000000 ) ) ;
#226 = AXIS2_PLACEMENT_3D ( 'NONE', #212, #171, #34 ) ;
#227 = DIRECTION ( 'NONE',  ( -3.491481338843133355E-15, 1.049697256412017316E-16, -1.000000000000000000 ) ) ;
#228 = CARTESIAN_POINT ( 'NONE',  ( 2.444036937190193601E-13, 1.199999999999990186, 70.00000000000000000 ) ) ;
#229 = ADVANCED_FACE ( 'NONE', ( #87 ), #162, .T. ) ;
#230 = CIRCLE ( 'NONE', #86, 1.499999999999992673 ) ;
#231 = CC_DESIGN_PERSON_AND_ORGANIZATION_ASSIGNMENT ( #125, #126, ( #211 ) ) ;
#232 = CALENDAR_DATE ( 2021, 26, 11 ) ;
#233 = EDGE_LOOP ( 'NONE', ( #188 ) ) ;
#234 = EDGE_CURVE ( 'NONE', #121, #121, #230, .T. ) ;
#235 = ORIENTED_EDGE ( 'NONE', *, *, #119, .T. ) ;
#236 = DATE_TIME_ROLE ( 'classification_date' ) ;
#237 = CLOSED_SHELL ( 'NONE', ( #216, #10, #100, #113, #80 ) ) ;
#238 = LOCAL_TIME ( 14, 2, 25.00000000000000000, #69 ) ;
#239 = CARTESIAN_POINT ( 'NONE',  ( 0.0000000000000000000, 0.0000000000000000000, 0.0000000000000000000 ) ) ;
#240 = LOCAL_TIME ( 14, 2, 25.00000000000000000, #139 ) ;
#241 = CARTESIAN_POINT ( 'NONE',  ( 3.778123439027452585E-30, 6.489788024212309441E-31, 1.082097560423821455E-15 ) ) ;
#242 = PRODUCT_DEFINITION_SHAPE ( 'NONE', 'NONE',  #33 ) ;
#243 = DIRECTION ( 'NONE',  ( -2.093986217907206634E-30, 1.000000000000000000, -5.997414892674257866E-16 ) ) ;
ENDSEC;
END-ISO-10303-21;
