ISO-10303-21;
HEADER;
FILE_DESCRIPTION (( 'STEP AP203' ),
    '1' );
FILE_NAME ('321310.step',
    '2021-11-26T13:02:24',
    ( '' ),
    ( '' ),
    'SwSTEP 2.0',
    'SolidWorks 2019',
    '' );
FILE_SCHEMA (( 'CONFIG_CONTROL_DESIGN' ));
ENDSEC;

DATA;
#1 = UNCERTAINTY_MEASURE_WITH_UNIT (LENGTH_MEASURE( 1.000000000000000082E-05 ), #135, 'distance_accuracy_value', 'NONE');
#2 = CC_DESIGN_DATE_AND_TIME_ASSIGNMENT ( #57, #71, ( #108 ) ) ;
#3 = VERTEX_POINT ( 'NONE', #206 ) ;
#4 = CONICAL_SURFACE ( 'NONE', #34, 1.889662432702592376, 0.5235987755982977054 ) ;
#5 = APPROVAL_PERSON_ORGANIZATION ( #96, #125, #99 ) ;
#6 = DIRECTION ( 'NONE',  ( 3.491481338843133355E-15, 5.990213337031155072E-16, 1.000000000000000000 ) ) ;
#7 = EDGE_CURVE ( 'NONE', #60, #60, #162, .T. ) ;
#8 = LOCAL_TIME ( 14, 2, 24.00000000000000000, #67 ) ;
#9 = EDGE_LOOP ( 'NONE', ( #28 ) ) ;
#10 = COORDINATED_UNIVERSAL_TIME_OFFSET ( 1, 0, .AHEAD. ) ;
#11 = ORIENTED_EDGE ( 'NONE', *, *, #114, .F. ) ;
#12 = CIRCLE ( 'NONE', #90, 1.499999999999997558 ) ;
#13 = APPROVAL_PERSON_ORGANIZATION ( #201, #41, #233 ) ;
#14 = PERSON_AND_ORGANIZATION ( #83, #148 ) ;
#15 = ORIENTED_EDGE ( 'NONE', *, *, #114, .T. ) ;
#16 = APPROVAL_ROLE ( '' ) ;
#17 = DIRECTION ( 'NONE',  ( -2.091471808193353036E-30, 1.000000000000000000, -5.990213337031155072E-16 ) ) ;
#18 = ORIENTED_EDGE ( 'NONE', *, *, #52, .F. ) ;
#19 = AXIS2_PLACEMENT_3D ( 'NONE', #101, #226, #47 ) ;
#20 = PERSON_AND_ORGANIZATION ( #83, #148 ) ;
#21 = EDGE_LOOP ( 'NONE', ( #11 ) ) ;
#22 = CC_DESIGN_DATE_AND_TIME_ASSIGNMENT ( #53, #164, ( #29 ) ) ;
#23 = FACE_OUTER_BOUND ( 'NONE', #126, .T. ) ;
#24 = DIRECTION ( 'NONE',  ( 3.664998382197393967E-31, 1.000000000000000000, 1.049697256412017316E-16 ) ) ;
#25 = DIRECTION ( 'NONE',  ( 2.091471808193353036E-30, -1.000000000000000000, 5.990213337031155072E-16 ) ) ;
#26 = CLOSED_SHELL ( 'NONE', ( #224, #137, #159, #220, #68 ) ) ;
#27 = CC_DESIGN_PERSON_AND_ORGANIZATION_ASSIGNMENT ( #93, #37, ( #117 ) ) ;
#28 = ORIENTED_EDGE ( 'NONE', *, *, #198, .T. ) ;
#29 = SECURITY_CLASSIFICATION ( '', '', #144 ) ;
#30 = EDGE_LOOP ( 'NONE', ( #106 ) ) ;
#31 = CALENDAR_DATE ( 2021, 26, 11 ) ;
#32 = PLANE ( 'NONE',  #55 ) ;
#33 = APPROVAL_DATE_TIME ( #168, #41 ) ;
#34 = AXIS2_PLACEMENT_3D ( 'NONE', #208, #6, #102 ) ;
#35 = ORIENTED_EDGE ( 'NONE', *, *, #45, .F. ) ;
#36 = ADVANCED_FACE ( 'NONE', ( #111 ), #32, .T. ) ;
#37 = PERSON_AND_ORGANIZATION_ROLE ( 'design_supplier' ) ;
#38 = CARTESIAN_POINT ( 'NONE',  ( 3.546512888803384691E-14, -1.066242230136126172E-15, 10.15761662348877259 ) ) ;
#39 = DIRECTION ( 'NONE',  ( -2.091471808193353387E-30, 1.000000000000000000, -5.990213337031155072E-16 ) ) ;
#40 = LOCAL_TIME ( 14, 2, 24.00000000000000000, #112 ) ;
#41 = APPROVAL ( #172, 'UNSPECIFIED' ) ;
#42 = CARTESIAN_POINT ( 'NONE',  ( 3.546512888803384691E-14, 2.033999999999998476, 10.15761662348877259 ) ) ;
#43 = CYLINDRICAL_SURFACE ( 'NONE', #230, 1.499999999999995337 ) ;
#44 =( NAMED_UNIT ( * ) PLANE_ANGLE_UNIT ( ) SI_UNIT ( $, .RADIAN. ) );
#45 = EDGE_CURVE ( 'NONE', #3, #3, #170, .T. ) ;
#46 = CARTESIAN_POINT ( 'NONE',  ( 0.0000000000000000000, 0.0000000000000000000, 0.0000000000000000000 ) ) ;
#47 = DIRECTION ( 'NONE',  ( 0.0000000000000000000, 1.000000000000000000, 0.0000000000000000000 ) ) ;
#48 = APPLICATION_CONTEXT ( 'configuration controlled 3d designs of mechanical parts and assemblies' ) ;
#49 = AXIS2_PLACEMENT_3D ( 'NONE', #38, #78, #153 ) ;
#50 = AXIS2_PLACEMENT_3D ( 'NONE', #150, #215, #95 ) ;
#51 = DIRECTION ( 'NONE',  ( 0.0000000000000000000, 0.0000000000000000000, 1.000000000000000000 ) ) ;
#52 = EDGE_CURVE ( 'NONE', #155, #155, #64, .T. ) ;
#53 = DATE_AND_TIME ( #189, #40 ) ;
#54 = COORDINATED_UNIVERSAL_TIME_OFFSET ( 1, 0, .AHEAD. ) ;
#55 = AXIS2_PLACEMENT_3D ( 'NONE', #134, #100, #17 ) ;
#56 = ADVANCED_FACE ( 'NONE', ( #132, #130 ), #77, .T. ) ;
#57 = DATE_AND_TIME ( #31, #197 ) ;
#58 = DIRECTION ( 'NONE',  ( -3.491481338843133355E-15, -5.990213337031155072E-16, -1.000000000000000000 ) ) ;
#59 = FACE_BOUND ( 'NONE', #161, .T. ) ;
#60 = VERTEX_POINT ( 'NONE', #79 ) ;
#61 = CARTESIAN_POINT ( 'NONE',  ( 3.546512888803384691E-14, 2.033999999999998476, 10.15761662348877259 ) ) ;
#62 = ADVANCED_BREP_SHAPE_REPRESENTATION ( '321310', ( #152, #66, #121 ), #217 ) ;
#63 = CARTESIAN_POINT ( 'NONE',  ( 3.546512888803384060E-14, 6.084629057047180628E-15, 10.15761662348877081 ) ) ;
#64 = CIRCLE ( 'NONE', #225, 1.499999999999992673 ) ;
#65 = EDGE_CURVE ( 'NONE', #193, #193, #12, .T. ) ;
#66 = MANIFOLD_SOLID_BREP ( 'Corps-Déplacer/Copier1[2]', #160 ) ;
#67 = COORDINATED_UNIVERSAL_TIME_OFFSET ( 1, 0, .AHEAD. ) ;
#68 = ADVANCED_FACE ( 'NONE', ( #171 ), #238, .T. ) ;
#69 = COORDINATED_UNIVERSAL_TIME_OFFSET ( 1, 0, .AHEAD. ) ;
#70 = DIRECTION ( 'NONE',  ( -2.091471808193353387E-30, 1.000000000000000000, -5.990213337031154086E-16 ) ) ;
#71 = DATE_TIME_ROLE ( 'creation_date' ) ;
#72 = DIRECTION ( 'NONE',  ( -3.491481338843133355E-15, -5.990213337031155072E-16, -1.000000000000000000 ) ) ;
#73 = APPROVAL_DATE_TIME ( #131, #125 ) ;
#74 = AXIS2_PLACEMENT_3D ( 'NONE', #82, #243, #118 ) ;
#75 = CARTESIAN_POINT ( 'NONE',  ( 3.869445280877825183E-14, -1.163330317703974635E-15, 11.08253175473057617 ) ) ;
#76 = APPROVAL_STATUS ( 'not_yet_approved' ) ;
#77 = CYLINDRICAL_SURFACE ( 'NONE', #124, 2.033999999999995367 ) ;
#78 = DIRECTION ( 'NONE',  ( -3.491481338843133355E-15, 1.049697256412017316E-16, -1.000000000000000000 ) ) ;
#79 = CARTESIAN_POINT ( 'NONE',  ( -1.892735826383161356E-31, 1.889662432702592376, -5.421010862427522170E-17 ) ) ;
#80 = LOCAL_TIME ( 14, 2, 24.00000000000000000, #54 ) ;
#81 = CC_DESIGN_PERSON_AND_ORGANIZATION_ASSIGNMENT ( #14, #214, ( #117 ) ) ;
#82 = CARTESIAN_POINT ( 'NONE',  ( 2.444036937190193601E-13, -7.347880794884121511E-15, 70.00000000000000000 ) ) ;
#83 = PERSON ( 'UNSPECIFIED', 'UNSPECIFIED', 'UNSPECIFIED', ('UNSPECIFIED'), ('UNSPECIFIED'), ('UNSPECIFIED') ) ;
#84 = CARTESIAN_POINT ( 'NONE',  ( 2.433562493173664138E-13, 1.499999999999990230, 69.70000000000001705 ) ) ;
#85 = CARTESIAN_POINT ( 'NONE',  ( 3.869445280877825183E-14, 1.499999999999991562, 11.08253175473057617 ) ) ;
#86 = DESIGN_CONTEXT ( 'detailed design', #48, 'design' ) ;
#87 = CC_DESIGN_PERSON_AND_ORGANIZATION_ASSIGNMENT ( #127, #218, ( #29 ) ) ;
#88 = PERSON_AND_ORGANIZATION ( #83, #148 ) ;
#89 = EDGE_LOOP ( 'NONE', ( #166 ) ) ;
#90 = AXIS2_PLACEMENT_3D ( 'NONE', #188, #116, #223 ) ;
#91 = EDGE_LOOP ( 'NONE', ( #15 ) ) ;
#92 = CARTESIAN_POINT ( 'NONE',  ( 0.0000000000000000000, 0.0000000000000000000, 0.0000000000000000000 ) ) ;
#93 = PERSON_AND_ORGANIZATION ( #83, #148 ) ;
#94 = LOCAL_TIME ( 14, 2, 24.00000000000000000, #10 ) ;
#95 = DIRECTION ( 'NONE',  ( 3.664998382197393967E-31, 1.000000000000000000, 1.049697256412017316E-16 ) ) ;
#96 = PERSON_AND_ORGANIZATION ( #83, #148 ) ;
#97 = APPROVAL ( #98, 'UNSPECIFIED' ) ;
#98 = APPROVAL_STATUS ( 'not_yet_approved' ) ;
#99 = APPROVAL_ROLE ( '' ) ;
#100 = DIRECTION ( 'NONE',  ( -3.491481338843133355E-15, -5.990213337031155072E-16, -1.000000000000000000 ) ) ;
#101 = CARTESIAN_POINT ( 'NONE',  ( 2.433562493173664138E-13, -7.316389877191761450E-15, 69.70000000000001705 ) ) ;
#102 = DIRECTION ( 'NONE',  ( 2.091471808193352686E-30, -1.000000000000000000, 5.990213337031154086E-16 ) ) ;
#103 = EDGE_CURVE ( 'NONE', #139, #139, #202, .T. ) ;
#104 = CARTESIAN_POINT ( 'NONE',  ( 3.546512888803385322E-14, 6.084629057047182206E-15, 10.15761662348877437 ) ) ;
#105 = VERTEX_POINT ( 'NONE', #42 ) ;
#106 = ORIENTED_EDGE ( 'NONE', *, *, #52, .T. ) ;
#107 = EDGE_LOOP ( 'NONE', ( #229 ) ) ;
#108 = PRODUCT_DEFINITION ( 'UNKNOWN', '', #117, #86 ) ;
#109 = APPLICATION_PROTOCOL_DEFINITION ( 'international standard', 'config_control_design', 1994, #167 ) ;
#110 = APPLICATION_PROTOCOL_DEFINITION ( 'international standard', 'config_control_design', 1994, #48 ) ;
#111 = FACE_OUTER_BOUND ( 'NONE', #107, .T. ) ;
#112 = COORDINATED_UNIVERSAL_TIME_OFFSET ( 1, 0, .AHEAD. ) ;
#113 = ORIENTED_EDGE ( 'NONE', *, *, #198, .F. ) ;
#114 = EDGE_CURVE ( 'NONE', #209, #209, #216, .T. ) ;
#115 = PERSON_AND_ORGANIZATION ( #83, #148 ) ;
#116 = DIRECTION ( 'NONE',  ( -3.491481338843133355E-15, 1.049697256412017316E-16, -1.000000000000000000 ) ) ;
#117 = PRODUCT_DEFINITION_FORMATION_WITH_SPECIFIED_SOURCE ( 'ANY', '', #176, .NOT_KNOWN. ) ;
#118 = DIRECTION ( 'NONE',  ( -3.664998382197393967E-31, -1.000000000000000000, -1.049697256412017316E-16 ) ) ;
#119 = DIRECTION ( 'NONE',  ( 3.491481338843133355E-15, 5.990213337031155072E-16, 1.000000000000000000 ) ) ;
#120 = CONICAL_SURFACE ( 'NONE', #182, 2.033999999999999364, 0.5235987755982932645 ) ;
#121 = AXIS2_PLACEMENT_3D ( 'NONE', #92, #51, #200 ) ;
#122 = CARTESIAN_POINT ( 'NONE',  ( 3.546512888803384691E-14, -1.066242230136126172E-15, 10.15761662348877259 ) ) ;
#123 = FACE_OUTER_BOUND ( 'NONE', #183, .T. ) ;
#124 = AXIS2_PLACEMENT_3D ( 'NONE', #192, #72, #39 ) ;
#125 = APPROVAL ( #76, 'UNSPECIFIED' ) ;
#126 = EDGE_LOOP ( 'NONE', ( #18 ) ) ;
#127 = PERSON_AND_ORGANIZATION ( #83, #148 ) ;
#128 = ORIENTED_EDGE ( 'NONE', *, *, #65, .T. ) ;
#129 = SHAPE_DEFINITION_REPRESENTATION ( #165, #62 ) ;
#130 = FACE_OUTER_BOUND ( 'NONE', #211, .T. ) ;
#131 = DATE_AND_TIME ( #203, #94 ) ;
#132 = FACE_OUTER_BOUND ( 'NONE', #9, .T. ) ;
#133 = AXIS2_PLACEMENT_3D ( 'NONE', #235, #205, #70 ) ;
#134 = CARTESIAN_POINT ( 'NONE',  ( -2.070724643818928647E-30, 1.889662432702592376, -5.930791096552278757E-16 ) ) ;
#135 =( LENGTH_UNIT ( ) NAMED_UNIT ( * ) SI_UNIT ( .MILLI., .METRE. ) );
#136 = FACE_OUTER_BOUND ( 'NONE', #222, .T. ) ;
#137 = ADVANCED_FACE ( 'NONE', ( #59, #123 ), #158, .T. ) ;
#138 = CC_DESIGN_APPROVAL ( #125, ( #117 ) ) ;
#139 = VERTEX_POINT ( 'NONE', #157 ) ;
#140 = CC_DESIGN_SECURITY_CLASSIFICATION ( #29, ( #117 ) ) ;
#141 = EDGE_LOOP ( 'NONE', ( #113 ) ) ;
#142 = CIRCLE ( 'NONE', #181, 2.033999999999992259 ) ;
#143 = CALENDAR_DATE ( 2021, 26, 11 ) ;
#144 = SECURITY_CLASSIFICATION_LEVEL ( 'unclassified' ) ;
#145 = CARTESIAN_POINT ( 'NONE',  ( 2.444036937190193601E-13, -7.347880794884121511E-15, 70.00000000000000000 ) ) ;
#146 = CARTESIAN_POINT ( 'NONE',  ( 8.728703347107875789E-16, 1.497553334257795917E-16, 0.2500000000000012212 ) ) ;
#147 = CALENDAR_DATE ( 2021, 26, 11 ) ;
#148 = ORGANIZATION ( 'UNSPECIFIED', 'UNSPECIFIED', '' ) ;
#149 = DIRECTION ( 'NONE',  ( -3.491481338843133355E-15, 1.049697256412017316E-16, -1.000000000000000000 ) ) ;
#150 = CARTESIAN_POINT ( 'NONE',  ( 3.546512888803384060E-14, 2.033999999999998476, 10.15761662348877081 ) ) ;
#151 = CC_DESIGN_PERSON_AND_ORGANIZATION_ASSIGNMENT ( #88, #212, ( #176 ) ) ;
#152 = MANIFOLD_SOLID_BREP ( 'Corps-Déplacer/Copier1[1]', #26 ) ;
#153 = DIRECTION ( 'NONE',  ( 0.0000000000000000000, 1.000000000000000000, 0.0000000000000000000 ) ) ;
#154 = DIRECTION ( 'NONE',  ( -3.491481338843133355E-15, 1.049697256412017316E-16, -1.000000000000000000 ) ) ;
#155 = VERTEX_POINT ( 'NONE', #85 ) ;
#156 = ADVANCED_FACE ( 'NONE', ( #179, #195 ), #4, .T. ) ;
#157 = CARTESIAN_POINT ( 'NONE',  ( 8.728703347107833388E-16, 2.033999999999998476, 0.2500000000000000000 ) ) ;
#158 = CONICAL_SURFACE ( 'NONE', #19, 1.499999999999997558, 0.7853981633974573828 ) ;
#159 = ADVANCED_FACE ( 'NONE', ( #207, #23 ), #43, .T. ) ;
#160 = CLOSED_SHELL ( 'NONE', ( #240, #56, #156, #36 ) ) ;
#161 = EDGE_LOOP ( 'NONE', ( #169 ) ) ;
#162 = CIRCLE ( 'NONE', #133, 1.889662432702592376 ) ;
#163 = APPROVAL_PERSON_ORGANIZATION ( #20, #97, #16 ) ;
#164 = DATE_TIME_ROLE ( 'classification_date' ) ;
#165 = PRODUCT_DEFINITION_SHAPE ( 'NONE', 'NONE',  #108 ) ;
#166 = ORIENTED_EDGE ( 'NONE', *, *, #7, .F. ) ;
#167 = APPLICATION_CONTEXT ( 'configuration controlled 3d designs of mechanical parts and assemblies' ) ;
#168 = DATE_AND_TIME ( #143, #8 ) ;
#169 = ORIENTED_EDGE ( 'NONE', *, *, #45, .T. ) ;
#170 = CIRCLE ( 'NONE', #194, 1.199999999999997513 ) ;
#171 = FACE_OUTER_BOUND ( 'NONE', #91, .T. ) ;
#172 = APPROVAL_STATUS ( 'not_yet_approved' ) ;
#173 = DIRECTION ( 'NONE',  ( -2.083110067675478059E-30, 1.000000000000000000, -5.863433577846882306E-16 ) ) ;
#174 = FACE_OUTER_BOUND ( 'NONE', #141, .T. ) ;
#175 = DIRECTION ( 'NONE',  ( 0.0000000000000000000, 1.000000000000000000, 0.0000000000000000000 ) ) ;
#176 = PRODUCT ( '321310', '321310', '', ( #184 ) ) ;
#177 = DIRECTION ( 'NONE',  ( -3.029978280255249762E-30, 1.000000000000000000, -8.528630658686399454E-16 ) ) ;
#178 = DIRECTION ( 'NONE',  ( -3.491481338843133355E-15, -5.990213337031155072E-16, -1.000000000000000000 ) ) ;
#179 = FACE_OUTER_BOUND ( 'NONE', #236, .T. ) ;
#180 = CC_DESIGN_PERSON_AND_ORGANIZATION_ASSIGNMENT ( #115, #191, ( #108 ) ) ;
#181 = AXIS2_PLACEMENT_3D ( 'NONE', #104, #178, #177 ) ;
#182 = AXIS2_PLACEMENT_3D ( 'NONE', #122, #227, #175 ) ;
#183 = EDGE_LOOP ( 'NONE', ( #190 ) ) ;
#184 = MECHANICAL_CONTEXT ( 'NONE', #167, 'mechanical' ) ;
#185 = EDGE_LOOP ( 'NONE', ( #128 ) ) ;
#186 = DATE_AND_TIME ( #147, #80 ) ;
#187 = AXIS2_PLACEMENT_3D ( 'NONE', #146, #58, #173 ) ;
#188 = CARTESIAN_POINT ( 'NONE',  ( 2.433562493173664138E-13, -7.316389877191761450E-15, 69.70000000000001705 ) ) ;
#189 = CALENDAR_DATE ( 2021, 26, 11 ) ;
#190 = ORIENTED_EDGE ( 'NONE', *, *, #65, .F. ) ;
#191 = PERSON_AND_ORGANIZATION_ROLE ( 'creator' ) ;
#192 = CARTESIAN_POINT ( 'NONE',  ( 0.0000000000000000000, 0.0000000000000000000, 0.0000000000000000000 ) ) ;
#193 = VERTEX_POINT ( 'NONE', #84 ) ;
#194 = AXIS2_PLACEMENT_3D ( 'NONE', #145, #239, #204 ) ;
#195 = FACE_BOUND ( 'NONE', #89, .T. ) ;
#196 = FACE_OUTER_BOUND ( 'NONE', #21, .T. ) ;
#197 = LOCAL_TIME ( 14, 2, 24.00000000000000000, #69 ) ;
#198 = EDGE_CURVE ( 'NONE', #105, #105, #142, .T. ) ;
#199 = CC_DESIGN_APPROVAL ( #97, ( #108 ) ) ;
#200 = DIRECTION ( 'NONE',  ( 1.000000000000000000, 0.0000000000000000000, 0.0000000000000000000 ) ) ;
#201 = PERSON_AND_ORGANIZATION ( #83, #148 ) ;
#202 = CIRCLE ( 'NONE', #187, 2.033999999999998476 ) ;
#203 = CALENDAR_DATE ( 2021, 26, 11 ) ;
#204 = DIRECTION ( 'NONE',  ( 0.0000000000000000000, 1.000000000000000000, 0.0000000000000000000 ) ) ;
#205 = DIRECTION ( 'NONE',  ( -3.491481338843133355E-15, -5.990213337031155072E-16, -1.000000000000000000 ) ) ;
#206 = CARTESIAN_POINT ( 'NONE',  ( 2.444036937190193601E-13, 1.199999999999990186, 70.00000000000000000 ) ) ;
#207 = FACE_OUTER_BOUND ( 'NONE', #185, .T. ) ;
#208 = CARTESIAN_POINT ( 'NONE',  ( 3.762902122361225066E-30, 6.455880553776536485E-31, 1.077738002061905308E-15 ) ) ;
#209 = VERTEX_POINT ( 'NONE', #61 ) ;
#210 =( NAMED_UNIT ( * ) SI_UNIT ( $, .STERADIAN. ) SOLID_ANGLE_UNIT ( ) );
#211 = EDGE_LOOP ( 'NONE', ( #232 ) ) ;
#212 = PERSON_AND_ORGANIZATION_ROLE ( 'design_owner' ) ;
#213 = PRODUCT_RELATED_PRODUCT_CATEGORY ( 'detail', '', ( #176 ) ) ;
#214 = PERSON_AND_ORGANIZATION_ROLE ( 'creator' ) ;
#215 = DIRECTION ( 'NONE',  ( -3.491481338843133355E-15, 1.049697256412017316E-16, -1.000000000000000000 ) ) ;
#216 = CIRCLE ( 'NONE', #49, 2.033999999999999364 ) ;
#217 =( GEOMETRIC_REPRESENTATION_CONTEXT ( 3 ) GLOBAL_UNCERTAINTY_ASSIGNED_CONTEXT ( ( #1 ) ) GLOBAL_UNIT_ASSIGNED_CONTEXT ( ( #135, #44, #210 ) ) REPRESENTATION_CONTEXT ( 'NONE', 'WORKASPACE' ) );
#218 = PERSON_AND_ORGANIZATION_ROLE ( 'classification_officer' ) ;
#219 = DIRECTION ( 'NONE',  ( 0.0000000000000000000, 1.000000000000000000, 0.0000000000000000000 ) ) ;
#220 = ADVANCED_FACE ( 'NONE', ( #242, #196 ), #120, .T. ) ;
#221 = APPROVAL_DATE_TIME ( #186, #97 ) ;
#222 = EDGE_LOOP ( 'NONE', ( #35 ) ) ;
#223 = DIRECTION ( 'NONE',  ( 0.0000000000000000000, 1.000000000000000000, 0.0000000000000000000 ) ) ;
#224 = ADVANCED_FACE ( 'NONE', ( #136 ), #228, .T. ) ;
#225 = AXIS2_PLACEMENT_3D ( 'NONE', #75, #149, #219 ) ;
#226 = DIRECTION ( 'NONE',  ( -3.491481338843133355E-15, 1.049697256412017316E-16, -1.000000000000000000 ) ) ;
#227 = DIRECTION ( 'NONE',  ( -3.491481338843133355E-15, 1.049697256412017316E-16, -1.000000000000000000 ) ) ;
#228 = PLANE ( 'NONE',  #74 ) ;
#229 = ORIENTED_EDGE ( 'NONE', *, *, #7, .T. ) ;
#230 = AXIS2_PLACEMENT_3D ( 'NONE', #46, #154, #24 ) ;
#231 = CC_DESIGN_APPROVAL ( #41, ( #29 ) ) ;
#232 = ORIENTED_EDGE ( 'NONE', *, *, #103, .F. ) ;
#233 = APPROVAL_ROLE ( '' ) ;
#234 = ORIENTED_EDGE ( 'NONE', *, *, #103, .T. ) ;
#235 = CARTESIAN_POINT ( 'NONE',  ( 3.762902122361225066E-30, 6.455880553776536485E-31, 1.077738002061905308E-15 ) ) ;
#236 = EDGE_LOOP ( 'NONE', ( #234 ) ) ;
#237 = AXIS2_PLACEMENT_3D ( 'NONE', #63, #119, #25 ) ;
#238 = PLANE ( 'NONE',  #50 ) ;
#239 = DIRECTION ( 'NONE',  ( -3.491481338843133355E-15, 1.049697256412017316E-16, -1.000000000000000000 ) ) ;
#240 = ADVANCED_FACE ( 'NONE', ( #174 ), #241, .T. ) ;
#241 = PLANE ( 'NONE',  #237 ) ;
#242 = FACE_BOUND ( 'NONE', #30, .T. ) ;
#243 = DIRECTION ( 'NONE',  ( 3.491481338843133355E-15, -1.049697256412017316E-16, 1.000000000000000000 ) ) ;
ENDSEC;
END-ISO-10303-21;
