ISO-10303-21;
HEADER;
FILE_DESCRIPTION (( 'STEP AP203' ),
    '1' );
FILE_NAME ('321309.step',
    '2021-11-26T13:02:24',
    ( '' ),
    ( '' ),
    'SwSTEP 2.0',
    'SolidWorks 2019',
    '' );
FILE_SCHEMA (( 'CONFIG_CONTROL_DESIGN' ));
ENDSEC;

DATA;
#1 = CARTESIAN_POINT ( 'NONE',  ( 3.747714023412296577E-30, 6.422105966391838338E-31, 1.073387957632350593E-15 ) ) ;
#2 = DIRECTION ( 'NONE',  ( -3.491481338843133355E-15, -5.983024050835767957E-16, -1.000000000000000000 ) ) ;
#3 = SHAPE_DEFINITION_REPRESENTATION ( #193, #66 ) ;
#4 =( LENGTH_UNIT ( ) NAMED_UNIT ( * ) SI_UNIT ( .MILLI., .METRE. ) );
#5 = CC_DESIGN_APPROVAL ( #175, ( #93 ) ) ;
#6 = CARTESIAN_POINT ( 'NONE',  ( 2.433562493173664138E-13, 1.499999999999990230, 69.70000000000001705 ) ) ;
#7 = CC_DESIGN_PERSON_AND_ORGANIZATION_ASSIGNMENT ( #188, #113, ( #86 ) ) ;
#8 = EDGE_LOOP ( 'NONE', ( #31 ) ) ;
#9 = EDGE_LOOP ( 'NONE', ( #237 ) ) ;
#10 = ORIENTED_EDGE ( 'NONE', *, *, #24, .T. ) ;
#11 = CARTESIAN_POINT ( 'NONE',  ( -2.063130594344464402E-30, 1.884662432702592483, -5.909040874404505183E-16 ) ) ;
#12 = ADVANCED_FACE ( 'NONE', ( #180 ), #195, .T. ) ;
#13 = DIRECTION ( 'NONE',  ( -3.491481338843133355E-15, 1.049697256412017316E-16, -1.000000000000000000 ) ) ;
#14 = DIRECTION ( 'NONE',  ( -3.491481338843133355E-15, -5.983024050835767957E-16, -1.000000000000000000 ) ) ;
#15 = DIRECTION ( 'NONE',  ( -2.088961682334273734E-30, 1.000000000000000000, -5.983024050835768943E-16 ) ) ;
#16 =( GEOMETRIC_REPRESENTATION_CONTEXT ( 3 ) GLOBAL_UNCERTAINTY_ASSIGNED_CONTEXT ( ( #234 ) ) GLOBAL_UNIT_ASSIGNED_CONTEXT ( ( #4, #136, #25 ) ) REPRESENTATION_CONTEXT ( 'NONE', 'WORKASPACE' ) );
#17 = CARTESIAN_POINT ( 'NONE',  ( 3.549536600339662196E-14, -1.067151294626461896E-15, 10.16627687752661657 ) ) ;
#18 = APPROVAL_STATUS ( 'not_yet_approved' ) ;
#19 = DIRECTION ( 'NONE',  ( 3.491481338843133355E-15, 5.983024050835766971E-16, 1.000000000000000000 ) ) ;
#20 = DATE_AND_TIME ( #163, #192 ) ;
#21 = AXIS2_PLACEMENT_3D ( 'NONE', #11, #85, #84 ) ;
#22 = MECHANICAL_CONTEXT ( 'NONE', #46, 'mechanical' ) ;
#23 = CALENDAR_DATE ( 2021, 26, 11 ) ;
#24 = EDGE_CURVE ( 'NONE', #242, #242, #157, .T. ) ;
#25 =( NAMED_UNIT ( * ) SI_UNIT ( $, .STERADIAN. ) SOLID_ANGLE_UNIT ( ) );
#26 = AXIS2_PLACEMENT_3D ( 'NONE', #111, #143, #96 ) ;
#27 = DIRECTION ( 'NONE',  ( -3.491481338843133355E-15, 1.049697256412017316E-16, -1.000000000000000000 ) ) ;
#28 = CC_DESIGN_DATE_AND_TIME_ASSIGNMENT ( #62, #134, ( #93 ) ) ;
#29 = EDGE_LOOP ( 'NONE', ( #142 ) ) ;
#30 = AXIS2_PLACEMENT_3D ( 'NONE', #33, #150, #77 ) ;
#31 = ORIENTED_EDGE ( 'NONE', *, *, #65, .F. ) ;
#32 = EDGE_LOOP ( 'NONE', ( #50 ) ) ;
#33 = CARTESIAN_POINT ( 'NONE',  ( 2.444036937190193601E-13, -7.347880794884121511E-15, 70.00000000000000000 ) ) ;
#34 = LOCAL_TIME ( 14, 2, 24.00000000000000000, #148 ) ;
#35 = CYLINDRICAL_SURFACE ( 'NONE', #218, 2.028999999999995474 ) ;
#36 = PLANE ( 'NONE',  #82 ) ;
#37 = CARTESIAN_POINT ( 'NONE',  ( 3.549536600339662196E-14, 6.082507906569728962E-15, 10.16627687752661657 ) ) ;
#38 = CALENDAR_DATE ( 2021, 26, 11 ) ;
#39 = FACE_OUTER_BOUND ( 'NONE', #29, .T. ) ;
#40 = CC_DESIGN_PERSON_AND_ORGANIZATION_ASSIGNMENT ( #42, #114, ( #156 ) ) ;
#41 = APPROVAL_STATUS ( 'not_yet_approved' ) ;
#42 = PERSON_AND_ORGANIZATION ( #202, #238 ) ;
#43 = CARTESIAN_POINT ( 'NONE',  ( 3.549536600339662196E-14, 2.028999999999998582, 10.16627687752661657 ) ) ;
#44 = DESIGN_CONTEXT ( 'detailed design', #87, 'design' ) ;
#45 = CIRCLE ( 'NONE', #181, 1.884662432702592483 ) ;
#46 = APPLICATION_CONTEXT ( 'configuration controlled 3d designs of mechanical parts and assemblies' ) ;
#47 = ORIENTED_EDGE ( 'NONE', *, *, #99, .T. ) ;
#48 = EDGE_LOOP ( 'NONE', ( #10 ) ) ;
#49 = ADVANCED_FACE ( 'NONE', ( #228, #205 ), #116, .T. ) ;
#50 = ORIENTED_EDGE ( 'NONE', *, *, #229, .T. ) ;
#51 = ADVANCED_FACE ( 'NONE', ( #189 ), #36, .T. ) ;
#52 = FACE_OUTER_BOUND ( 'NONE', #9, .T. ) ;
#53 = AXIS2_PLACEMENT_3D ( 'NONE', #222, #27, #104 ) ;
#54 = DATE_AND_TIME ( #38, #236 ) ;
#55 = DIRECTION ( 'NONE',  ( -3.491481338843133355E-15, 1.049697256412017316E-16, -1.000000000000000000 ) ) ;
#56 = FACE_OUTER_BOUND ( 'NONE', #161, .T. ) ;
#57 = DIRECTION ( 'NONE',  ( -3.664998382197393967E-31, -1.000000000000000000, -1.049697256412017316E-16 ) ) ;
#58 = ADVANCED_FACE ( 'NONE', ( #88, #39 ), #72, .T. ) ;
#59 = PERSON_AND_ORGANIZATION_ROLE ( 'creator' ) ;
#60 = PRODUCT_DEFINITION_FORMATION_WITH_SPECIFIED_SOURCE ( 'ANY', '', #156, .NOT_KNOWN. ) ;
#61 = PERSON_AND_ORGANIZATION ( #202, #238 ) ;
#62 = DATE_AND_TIME ( #211, #83 ) ;
#63 = CARTESIAN_POINT ( 'NONE',  ( 2.444036937190193601E-13, 1.199999999999990186, 70.00000000000000000 ) ) ;
#64 = VERTEX_POINT ( 'NONE', #213 ) ;
#65 = EDGE_CURVE ( 'NONE', #112, #112, #45, .T. ) ;
#66 = ADVANCED_BREP_SHAPE_REPRESENTATION ( '321309', ( #214, #128, #135 ), #16 ) ;
#67 = AXIS2_PLACEMENT_3D ( 'NONE', #37, #19, #162 ) ;
#68 = EDGE_LOOP ( 'NONE', ( #223 ) ) ;
#69 = ORIENTED_EDGE ( 'NONE', *, *, #169, .T. ) ;
#70 = CIRCLE ( 'NONE', #79, 2.028999999999998582 ) ;
#71 = CARTESIAN_POINT ( 'NONE',  ( 0.0000000000000000000, 0.0000000000000000000, 0.0000000000000000000 ) ) ;
#72 = CYLINDRICAL_SURFACE ( 'NONE', #151, 1.499999999999995337 ) ;
#73 = PLANE ( 'NONE',  #166 ) ;
#74 = COORDINATED_UNIVERSAL_TIME_OFFSET ( 1, 0, .AHEAD. ) ;
#75 = FACE_OUTER_BOUND ( 'NONE', #32, .T. ) ;
#76 = CC_DESIGN_PERSON_AND_ORGANIZATION_ASSIGNMENT ( #132, #97, ( #60 ) ) ;
#77 = DIRECTION ( 'NONE',  ( 0.0000000000000000000, 1.000000000000000000, 0.0000000000000000000 ) ) ;
#78 = PERSON_AND_ORGANIZATION ( #202, #238 ) ;
#79 = AXIS2_PLACEMENT_3D ( 'NONE', #231, #225, #203 ) ;
#80 = APPROVAL_DATE_TIME ( #102, #175 ) ;
#81 = VERTEX_POINT ( 'NONE', #63 ) ;
#82 = AXIS2_PLACEMENT_3D ( 'NONE', #130, #206, #57 ) ;
#83 = LOCAL_TIME ( 14, 2, 24.00000000000000000, #216 ) ;
#84 = DIRECTION ( 'NONE',  ( -2.088961682334273033E-30, 1.000000000000000000, -5.983024050835766971E-16 ) ) ;
#85 = DIRECTION ( 'NONE',  ( -3.491481338843133355E-15, -5.983024050835766971E-16, -1.000000000000000000 ) ) ;
#86 = SECURITY_CLASSIFICATION ( '', '', #95 ) ;
#87 = APPLICATION_CONTEXT ( 'configuration controlled 3d designs of mechanical parts and assemblies' ) ;
#88 = FACE_OUTER_BOUND ( 'NONE', #107, .T. ) ;
#89 = CC_DESIGN_PERSON_AND_ORGANIZATION_ASSIGNMENT ( #78, #59, ( #60 ) ) ;
#90 = DIRECTION ( 'NONE',  ( -3.037444959112457768E-30, 1.000000000000000000, -8.549647491260785164E-16 ) ) ;
#91 = DIRECTION ( 'NONE',  ( 0.0000000000000000000, 1.000000000000000000, 0.0000000000000000000 ) ) ;
#92 = AXIS2_PLACEMENT_3D ( 'NONE', #109, #55, #91 ) ;
#93 = PRODUCT_DEFINITION ( 'UNKNOWN', '', #60, #44 ) ;
#94 = DIRECTION ( 'NONE',  ( -3.491481338843133355E-15, 1.049697256412017316E-16, -1.000000000000000000 ) ) ;
#95 = SECURITY_CLASSIFICATION_LEVEL ( 'unclassified' ) ;
#96 = DIRECTION ( 'NONE',  ( 0.0000000000000000000, 1.000000000000000000, 0.0000000000000000000 ) ) ;
#97 = PERSON_AND_ORGANIZATION_ROLE ( 'design_supplier' ) ;
#98 = APPROVAL_ROLE ( '' ) ;
#99 = EDGE_CURVE ( 'NONE', #81, #81, #197, .T. ) ;
#100 = AXIS2_PLACEMENT_3D ( 'NONE', #17, #94, #147 ) ;
#101 = PERSON_AND_ORGANIZATION ( #202, #238 ) ;
#102 = DATE_AND_TIME ( #23, #160 ) ;
#103 = CIRCLE ( 'NONE', #120, 2.028999999999992809 ) ;
#104 = DIRECTION ( 'NONE',  ( 0.0000000000000000000, 1.000000000000000000, 0.0000000000000000000 ) ) ;
#105 = EDGE_LOOP ( 'NONE', ( #47 ) ) ;
#106 = CC_DESIGN_APPROVAL ( #196, ( #60 ) ) ;
#107 = EDGE_LOOP ( 'NONE', ( #177 ) ) ;
#108 = CARTESIAN_POINT ( 'NONE',  ( 0.0000000000000000000, 0.0000000000000000000, 0.0000000000000000000 ) ) ;
#109 = CARTESIAN_POINT ( 'NONE',  ( 3.549536600339662196E-14, -1.067151294626461896E-15, 10.16627687752661657 ) ) ;
#110 = DIRECTION ( 'NONE',  ( -3.491481338843133355E-15, 1.049697256412017316E-16, -1.000000000000000000 ) ) ;
#111 = CARTESIAN_POINT ( 'NONE',  ( 2.433562493173664138E-13, -7.316389877191761450E-15, 69.70000000000001705 ) ) ;
#112 = VERTEX_POINT ( 'NONE', #127 ) ;
#113 = PERSON_AND_ORGANIZATION_ROLE ( 'classification_officer' ) ;
#114 = PERSON_AND_ORGANIZATION_ROLE ( 'design_owner' ) ;
#115 = APPROVAL_ROLE ( '' ) ;
#116 = CONICAL_SURFACE ( 'NONE', #190, 1.884662432702592483, 0.5235987755982977054 ) ;
#117 = APPLICATION_PROTOCOL_DEFINITION ( 'international standard', 'config_control_design', 1994, #87 ) ;
#118 = VERTEX_POINT ( 'NONE', #43 ) ;
#119 = APPROVAL ( #18, 'UNSPECIFIED' ) ;
#120 = AXIS2_PLACEMENT_3D ( 'NONE', #208, #14, #90 ) ;
#121 = ADVANCED_FACE ( 'NONE', ( #144, #52 ), #145, .T. ) ;
#122 = ORIENTED_EDGE ( 'NONE', *, *, #137, .F. ) ;
#123 = CIRCLE ( 'NONE', #141, 1.499999999999997558 ) ;
#124 = PLANE ( 'NONE',  #67 ) ;
#125 = DIRECTION ( 'NONE',  ( 2.088961682334273384E-30, -1.000000000000000000, 5.983024050835767957E-16 ) ) ;
#126 = CLOSED_SHELL ( 'NONE', ( #51, #121, #58, #217, #183 ) ) ;
#127 = CARTESIAN_POINT ( 'NONE',  ( -1.892735826383154569E-31, 1.884662432702592483, -5.421010862427522170E-17 ) ) ;
#128 = MANIFOLD_SOLID_BREP ( 'Corps-Déplacer/Copier1[2]', #139 ) ;
#129 = CC_DESIGN_PERSON_AND_ORGANIZATION_ASSIGNMENT ( #101, #154, ( #93 ) ) ;
#130 = CARTESIAN_POINT ( 'NONE',  ( 2.444036937190193601E-13, -7.347880794884121511E-15, 70.00000000000000000 ) ) ;
#131 = DIRECTION ( 'NONE',  ( 3.664998382197393967E-31, 1.000000000000000000, 1.049697256412017316E-16 ) ) ;
#132 = PERSON_AND_ORGANIZATION ( #202, #238 ) ;
#133 = APPROVAL_STATUS ( 'not_yet_approved' ) ;
#134 = DATE_TIME_ROLE ( 'creation_date' ) ;
#135 = AXIS2_PLACEMENT_3D ( 'NONE', #235, #153, #233 ) ;
#136 =( NAMED_UNIT ( * ) PLANE_ANGLE_UNIT ( ) SI_UNIT ( $, .RADIAN. ) );
#137 = EDGE_CURVE ( 'NONE', #173, #173, #70, .T. ) ;
#138 = CARTESIAN_POINT ( 'NONE',  ( 8.728703347107833388E-16, 2.028999999999998582, 0.2500000000000000000 ) ) ;
#139 = CLOSED_SHELL ( 'NONE', ( #140, #159, #49, #12 ) ) ;
#140 = ADVANCED_FACE ( 'NONE', ( #56 ), #124, .T. ) ;
#141 = AXIS2_PLACEMENT_3D ( 'NONE', #187, #165, #243 ) ;
#142 = ORIENTED_EDGE ( 'NONE', *, *, #24, .F. ) ;
#143 = DIRECTION ( 'NONE',  ( -3.491481338843133355E-15, 1.049697256412017316E-16, -1.000000000000000000 ) ) ;
#144 = FACE_BOUND ( 'NONE', #105, .T. ) ;
#145 = CONICAL_SURFACE ( 'NONE', #26, 1.499999999999997558, 0.7853981633974573828 ) ;
#146 = COORDINATED_UNIVERSAL_TIME_OFFSET ( 1, 0, .AHEAD. ) ;
#147 = DIRECTION ( 'NONE',  ( 0.0000000000000000000, 1.000000000000000000, 0.0000000000000000000 ) ) ;
#148 = COORDINATED_UNIVERSAL_TIME_OFFSET ( 1, 0, .AHEAD. ) ;
#149 = FACE_OUTER_BOUND ( 'NONE', #239, .T. ) ;
#150 = DIRECTION ( 'NONE',  ( -3.491481338843133355E-15, 1.049697256412017316E-16, -1.000000000000000000 ) ) ;
#151 = AXIS2_PLACEMENT_3D ( 'NONE', #71, #110, #131 ) ;
#152 = PERSON_AND_ORGANIZATION ( #202, #238 ) ;
#153 = DIRECTION ( 'NONE',  ( 0.0000000000000000000, 0.0000000000000000000, 1.000000000000000000 ) ) ;
#154 = PERSON_AND_ORGANIZATION_ROLE ( 'creator' ) ;
#155 = APPROVAL_PERSON_ORGANIZATION ( #212, #196, #115 ) ;
#156 = PRODUCT ( '321309', '321309', '', ( #22 ) ) ;
#157 = CIRCLE ( 'NONE', #53, 1.499999999999992673 ) ;
#158 = ORIENTED_EDGE ( 'NONE', *, *, #169, .F. ) ;
#159 = ADVANCED_FACE ( 'NONE', ( #75, #201 ), #35, .T. ) ;
#160 = LOCAL_TIME ( 14, 2, 24.00000000000000000, #171 ) ;
#161 = EDGE_LOOP ( 'NONE', ( #194 ) ) ;
#162 = DIRECTION ( 'NONE',  ( 2.088961682334273033E-30, -1.000000000000000000, 5.983024050835766971E-16 ) ) ;
#163 = CALENDAR_DATE ( 2021, 26, 11 ) ;
#164 = FACE_OUTER_BOUND ( 'NONE', #220, .T. ) ;
#165 = DIRECTION ( 'NONE',  ( -3.491481338843133355E-15, 1.049697256412017316E-16, -1.000000000000000000 ) ) ;
#166 = AXIS2_PLACEMENT_3D ( 'NONE', #182, #13, #240 ) ;
#167 = DIRECTION ( 'NONE',  ( 3.491481338843133355E-15, 5.983024050835767957E-16, 1.000000000000000000 ) ) ;
#168 = DIRECTION ( 'NONE',  ( -2.088961682334273384E-30, 1.000000000000000000, -5.983024050835767957E-16 ) ) ;
#169 = EDGE_CURVE ( 'NONE', #118, #118, #209, .T. ) ;
#170 = DATE_AND_TIME ( #184, #34 ) ;
#171 = COORDINATED_UNIVERSAL_TIME_OFFSET ( 1, 0, .AHEAD. ) ;
#172 = CC_DESIGN_SECURITY_CLASSIFICATION ( #86, ( #60 ) ) ;
#173 = VERTEX_POINT ( 'NONE', #138 ) ;
#174 = APPLICATION_PROTOCOL_DEFINITION ( 'international standard', 'config_control_design', 1994, #46 ) ;
#175 = APPROVAL ( #133, 'UNSPECIFIED' ) ;
#176 = EDGE_LOOP ( 'NONE', ( #179 ) ) ;
#177 = ORIENTED_EDGE ( 'NONE', *, *, #178, .T. ) ;
#178 = EDGE_CURVE ( 'NONE', #191, #191, #123, .T. ) ;
#179 = ORIENTED_EDGE ( 'NONE', *, *, #137, .T. ) ;
#180 = FACE_OUTER_BOUND ( 'NONE', #68, .T. ) ;
#181 = AXIS2_PLACEMENT_3D ( 'NONE', #1, #2, #168 ) ;
#182 = CARTESIAN_POINT ( 'NONE',  ( 3.549536600339662196E-14, 2.028999999999998582, 10.16627687752661657 ) ) ;
#183 = ADVANCED_FACE ( 'NONE', ( #164 ), #73, .T. ) ;
#184 = CALENDAR_DATE ( 2021, 26, 11 ) ;
#185 = FACE_BOUND ( 'NONE', #48, .T. ) ;
#186 = DIRECTION ( 'NONE',  ( -3.491481338843133355E-15, -5.983024050835767957E-16, -1.000000000000000000 ) ) ;
#187 = CARTESIAN_POINT ( 'NONE',  ( 2.433562493173664138E-13, -7.316389877191761450E-15, 69.70000000000001705 ) ) ;
#188 = PERSON_AND_ORGANIZATION ( #202, #238 ) ;
#189 = FACE_OUTER_BOUND ( 'NONE', #199, .T. ) ;
#190 = AXIS2_PLACEMENT_3D ( 'NONE', #230, #167, #125 ) ;
#191 = VERTEX_POINT ( 'NONE', #6 ) ;
#192 = LOCAL_TIME ( 14, 2, 24.00000000000000000, #74 ) ;
#193 = PRODUCT_DEFINITION_SHAPE ( 'NONE', 'NONE',  #93 ) ;
#194 = ORIENTED_EDGE ( 'NONE', *, *, #229, .F. ) ;
#195 = PLANE ( 'NONE',  #21 ) ;
#196 = APPROVAL ( #41, 'UNSPECIFIED' ) ;
#197 = CIRCLE ( 'NONE', #30, 1.199999999999997513 ) ;
#198 = CC_DESIGN_APPROVAL ( #119, ( #86 ) ) ;
#199 = EDGE_LOOP ( 'NONE', ( #219 ) ) ;
#200 = EDGE_LOOP ( 'NONE', ( #122 ) ) ;
#201 = FACE_OUTER_BOUND ( 'NONE', #200, .T. ) ;
#202 = PERSON ( 'UNSPECIFIED', 'UNSPECIFIED', 'UNSPECIFIED', ('UNSPECIFIED'), ('UNSPECIFIED'), ('UNSPECIFIED') ) ;
#203 = DIRECTION ( 'NONE',  ( -2.088243409389808585E-30, 1.000000000000000000, -5.877882650241772544E-16 ) ) ;
#204 = APPROVAL_DATE_TIME ( #20, #196 ) ;
#205 = FACE_BOUND ( 'NONE', #8, .T. ) ;
#206 = DIRECTION ( 'NONE',  ( 3.491481338843133355E-15, -1.049697256412017316E-16, 1.000000000000000000 ) ) ;
#207 = PRODUCT_RELATED_PRODUCT_CATEGORY ( 'detail', '', ( #156 ) ) ;
#208 = CARTESIAN_POINT ( 'NONE',  ( 3.549536600339662827E-14, 6.082507906569730540E-15, 10.16627687752661835 ) ) ;
#209 = CIRCLE ( 'NONE', #92, 2.028999999999999471 ) ;
#210 = APPROVAL_ROLE ( '' ) ;
#211 = CALENDAR_DATE ( 2021, 26, 11 ) ;
#212 = PERSON_AND_ORGANIZATION ( #202, #238 ) ;
#213 = CARTESIAN_POINT ( 'NONE',  ( 3.549536600339662196E-14, 2.028999999999998582, 10.16627687752661657 ) ) ;
#214 = MANIFOLD_SOLID_BREP ( 'Corps-Déplacer/Copier1[1]', #126 ) ;
#215 = CONICAL_SURFACE ( 'NONE', #100, 2.028999999999999471, 0.5235987755982929315 ) ;
#216 = COORDINATED_UNIVERSAL_TIME_OFFSET ( 1, 0, .AHEAD. ) ;
#217 = ADVANCED_FACE ( 'NONE', ( #185, #149 ), #215, .T. ) ;
#218 = AXIS2_PLACEMENT_3D ( 'NONE', #108, #186, #15 ) ;
#219 = ORIENTED_EDGE ( 'NONE', *, *, #99, .F. ) ;
#220 = EDGE_LOOP ( 'NONE', ( #69 ) ) ;
#221 = APPROVAL_PERSON_ORGANIZATION ( #61, #175, #98 ) ;
#222 = CARTESIAN_POINT ( 'NONE',  ( 3.869445280877825183E-14, -1.163330317703974635E-15, 11.08253175473057617 ) ) ;
#223 = ORIENTED_EDGE ( 'NONE', *, *, #65, .T. ) ;
#224 = CC_DESIGN_DATE_AND_TIME_ASSIGNMENT ( #54, #227, ( #86 ) ) ;
#225 = DIRECTION ( 'NONE',  ( -3.491481338843133355E-15, -5.983024050835767957E-16, -1.000000000000000000 ) ) ;
#226 = CARTESIAN_POINT ( 'NONE',  ( 3.869445280877825183E-14, 1.499999999999991562, 11.08253175473057617 ) ) ;
#227 = DATE_TIME_ROLE ( 'classification_date' ) ;
#228 = FACE_OUTER_BOUND ( 'NONE', #176, .T. ) ;
#229 = EDGE_CURVE ( 'NONE', #64, #64, #103, .T. ) ;
#230 = CARTESIAN_POINT ( 'NONE',  ( 3.747714023412296577E-30, 6.422105966391838338E-31, 1.073387957632350593E-15 ) ) ;
#231 = CARTESIAN_POINT ( 'NONE',  ( 8.728703347107875789E-16, 1.495756012708949138E-16, 0.2500000000000012212 ) ) ;
#232 = APPROVAL_PERSON_ORGANIZATION ( #152, #119, #210 ) ;
#233 = DIRECTION ( 'NONE',  ( 1.000000000000000000, 0.0000000000000000000, 0.0000000000000000000 ) ) ;
#234 = UNCERTAINTY_MEASURE_WITH_UNIT (LENGTH_MEASURE( 1.000000000000000082E-05 ), #4, 'distance_accuracy_value', 'NONE');
#235 = CARTESIAN_POINT ( 'NONE',  ( 0.0000000000000000000, 0.0000000000000000000, 0.0000000000000000000 ) ) ;
#236 = LOCAL_TIME ( 14, 2, 24.00000000000000000, #146 ) ;
#237 = ORIENTED_EDGE ( 'NONE', *, *, #178, .F. ) ;
#238 = ORGANIZATION ( 'UNSPECIFIED', 'UNSPECIFIED', '' ) ;
#239 = EDGE_LOOP ( 'NONE', ( #158 ) ) ;
#240 = DIRECTION ( 'NONE',  ( 3.664998382197393967E-31, 1.000000000000000000, 1.049697256412017316E-16 ) ) ;
#241 = APPROVAL_DATE_TIME ( #170, #119 ) ;
#242 = VERTEX_POINT ( 'NONE', #226 ) ;
#243 = DIRECTION ( 'NONE',  ( 0.0000000000000000000, 1.000000000000000000, 0.0000000000000000000 ) ) ;
ENDSEC;
END-ISO-10303-21;
