ISO-10303-21;
HEADER;
FILE_DESCRIPTION (( 'STEP AP203' ),
    '1' );
FILE_NAME ('321308.step',
    '2021-11-26T13:02:23',
    ( '' ),
    ( '' ),
    'SwSTEP 2.0',
    'SolidWorks 2019',
    '' );
FILE_SCHEMA (( 'CONFIG_CONTROL_DESIGN' ));
ENDSEC;

DATA;
#1 = AXIS2_PLACEMENT_3D ( 'NONE', #161, #56, #69 ) ;
#2 = COORDINATED_UNIVERSAL_TIME_OFFSET ( 1, 0, .AHEAD. ) ;
#3 = ADVANCED_FACE ( 'NONE', ( #87 ), #234, .T. ) ;
#4 = CALENDAR_DATE ( 2021, 26, 11 ) ;
#5 = APPROVAL_DATE_TIME ( #188, #101 ) ;
#6 =( GEOMETRIC_REPRESENTATION_CONTEXT ( 3 ) GLOBAL_UNCERTAINTY_ASSIGNED_CONTEXT ( ( #185 ) ) GLOBAL_UNIT_ASSIGNED_CONTEXT ( ( #116, #230, #184 ) ) REPRESENTATION_CONTEXT ( 'NONE', 'WORKASPACE' ) );
#7 = DIRECTION ( 'NONE',  ( -3.491481338843133355E-15, 1.049697256412017316E-16, -1.000000000000000000 ) ) ;
#8 = DIRECTION ( 'NONE',  ( 3.491481338843133355E-15, -1.049697256412017316E-16, 1.000000000000000000 ) ) ;
#9 = DIRECTION ( 'NONE',  ( -3.664998382197393967E-31, -1.000000000000000000, -1.049697256412017316E-16 ) ) ;
#10 = PRODUCT_RELATED_PRODUCT_CATEGORY ( 'detail', '', ( #214 ) ) ;
#11 = CARTESIAN_POINT ( 'NONE',  ( 2.444036937190193601E-13, -7.347880794884121511E-15, 70.00000000000000000 ) ) ;
#12 = EDGE_LOOP ( 'NONE', ( #102 ) ) ;
#13 = PRODUCT_DEFINITION_SHAPE ( 'NONE', 'NONE',  #29 ) ;
#14 = DIRECTION ( 'NONE',  ( 3.664998382197393967E-31, 1.000000000000000000, 1.049697256412017316E-16 ) ) ;
#15 = CYLINDRICAL_SURFACE ( 'NONE', #89, 2.023999999999996025 ) ;
#16 = CARTESIAN_POINT ( 'NONE',  ( 3.552560311875939069E-14, 2.023999999999998689, 10.17493713156446056 ) ) ;
#17 = PERSON ( 'UNSPECIFIED', 'UNSPECIFIED', 'UNSPECIFIED', ('UNSPECIFIED'), ('UNSPECIFIED'), ('UNSPECIFIED') ) ;
#18 = DIRECTION ( 'NONE',  ( -3.491481338843133355E-15, -5.975847002759200576E-16, -1.000000000000000000 ) ) ;
#19 = CONICAL_SURFACE ( 'NONE', #166, 2.023999999999999577, 0.5235987755982934866 ) ;
#20 = CARTESIAN_POINT ( 'NONE',  ( -2.055553111319463931E-30, 1.879662432702592811, -5.887338100453805133E-16 ) ) ;
#21 = COORDINATED_UNIVERSAL_TIME_OFFSET ( 1, 0, .AHEAD. ) ;
#22 = APPLICATION_CONTEXT ( 'configuration controlled 3d designs of mechanical parts and assemblies' ) ;
#23 = AXIS2_PLACEMENT_3D ( 'NONE', #163, #158, #14 ) ;
#24 = DATE_AND_TIME ( #60, #137 ) ;
#25 = APPROVAL_ROLE ( '' ) ;
#26 = APPROVAL ( #226, 'UNSPECIFIED' ) ;
#27 = EDGE_LOOP ( 'NONE', ( #236 ) ) ;
#28 = EDGE_LOOP ( 'NONE', ( #85 ) ) ;
#29 = PRODUCT_DEFINITION ( 'UNKNOWN', '', #233, #96 ) ;
#30 = EDGE_LOOP ( 'NONE', ( #31 ) ) ;
#31 = ORIENTED_EDGE ( 'NONE', *, *, #138, .T. ) ;
#32 = FACE_OUTER_BOUND ( 'NONE', #172, .T. ) ;
#33 = DIRECTION ( 'NONE',  ( 0.0000000000000000000, 1.000000000000000000, 0.0000000000000000000 ) ) ;
#34 = DIRECTION ( 'NONE',  ( -3.044948528675482348E-30, 1.000000000000000000, -8.570768161940776474E-16 ) ) ;
#35 = FACE_OUTER_BOUND ( 'NONE', #194, .T. ) ;
#36 = SECURITY_CLASSIFICATION_LEVEL ( 'unclassified' ) ;
#37 = PERSON_AND_ORGANIZATION ( #17, #68 ) ;
#38 = PERSON_AND_ORGANIZATION_ROLE ( 'creator' ) ;
#39 = CC_DESIGN_DATE_AND_TIME_ASSIGNMENT ( #24, #98, ( #111 ) ) ;
#40 = CIRCLE ( 'NONE', #144, 2.023999999999998689 ) ;
#41 = ORIENTED_EDGE ( 'NONE', *, *, #91, .T. ) ;
#42 = CC_DESIGN_DATE_AND_TIME_ASSIGNMENT ( #121, #134, ( #29 ) ) ;
#43 = EDGE_LOOP ( 'NONE', ( #41 ) ) ;
#44 = ORIENTED_EDGE ( 'NONE', *, *, #83, .F. ) ;
#45 = SHAPE_DEFINITION_REPRESENTATION ( #13, #86 ) ;
#46 = EDGE_LOOP ( 'NONE', ( #154 ) ) ;
#47 = AXIS2_PLACEMENT_3D ( 'NONE', #171, #7, #82 ) ;
#48 = DIRECTION ( 'NONE',  ( 0.0000000000000000000, 1.000000000000000000, 0.0000000000000000000 ) ) ;
#49 = APPROVAL ( #79, 'UNSPECIFIED' ) ;
#50 = DIRECTION ( 'NONE',  ( -3.491481338843133355E-15, 1.049697256412017316E-16, -1.000000000000000000 ) ) ;
#51 = DIRECTION ( 'NONE',  ( 3.664998382197393967E-31, 1.000000000000000000, 1.049697256412017316E-16 ) ) ;
#52 = AXIS2_PLACEMENT_3D ( 'NONE', #88, #72, #33 ) ;
#53 = CARTESIAN_POINT ( 'NONE',  ( 3.552560311875939700E-14, 6.080386756092278874E-15, 10.17493713156446233 ) ) ;
#54 = CC_DESIGN_PERSON_AND_ORGANIZATION_ASSIGNMENT ( #37, #81, ( #233 ) ) ;
#55 = DIRECTION ( 'NONE',  ( -3.491481338843133355E-15, -5.975847002759200576E-16, -1.000000000000000000 ) ) ;
#56 = DIRECTION ( 'NONE',  ( -3.491481338843133355E-15, 1.049697256412017316E-16, -1.000000000000000000 ) ) ;
#57 = AXIS2_PLACEMENT_3D ( 'NONE', #53, #142, #115 ) ;
#58 = APPROVAL_PERSON_ORGANIZATION ( #191, #101, #25 ) ;
#59 = APPROVAL_DATE_TIME ( #243, #26 ) ;
#60 = CALENDAR_DATE ( 2021, 26, 11 ) ;
#61 = COORDINATED_UNIVERSAL_TIME_OFFSET ( 1, 0, .AHEAD. ) ;
#62 = PERSON_AND_ORGANIZATION_ROLE ( 'design_supplier' ) ;
#63 = ORIENTED_EDGE ( 'NONE', *, *, #242, .F. ) ;
#64 = FACE_BOUND ( 'NONE', #46, .T. ) ;
#65 = EDGE_LOOP ( 'NONE', ( #123 ) ) ;
#66 = EDGE_LOOP ( 'NONE', ( #231 ) ) ;
#67 = CIRCLE ( 'NONE', #182, 1.879662432702592811 ) ;
#68 = ORGANIZATION ( 'UNSPECIFIED', 'UNSPECIFIED', '' ) ;
#69 = DIRECTION ( 'NONE',  ( 0.0000000000000000000, 1.000000000000000000, 0.0000000000000000000 ) ) ;
#70 = VERTEX_POINT ( 'NONE', #143 ) ;
#71 = ADVANCED_FACE ( 'NONE', ( #141, #210 ), #19, .T. ) ;
#72 = DIRECTION ( 'NONE',  ( -3.491481338843133355E-15, 1.049697256412017316E-16, -1.000000000000000000 ) ) ;
#73 = CIRCLE ( 'NONE', #206, 1.499999999999992673 ) ;
#74 = DIRECTION ( 'NONE',  ( 2.086455829391541865E-30, -1.000000000000000000, 5.975847002759201562E-16 ) ) ;
#75 = FACE_OUTER_BOUND ( 'NONE', #212, .T. ) ;
#76 = DIRECTION ( 'NONE',  ( 0.0000000000000000000, 0.0000000000000000000, 1.000000000000000000 ) ) ;
#77 = CC_DESIGN_APPROVAL ( #101, ( #233 ) ) ;
#78 = COORDINATED_UNIVERSAL_TIME_OFFSET ( 1, 0, .AHEAD. ) ;
#79 = APPROVAL_STATUS ( 'not_yet_approved' ) ;
#80 = AXIS2_PLACEMENT_3D ( 'NONE', #213, #108, #74 ) ;
#81 = PERSON_AND_ORGANIZATION_ROLE ( 'creator' ) ;
#82 = DIRECTION ( 'NONE',  ( 0.0000000000000000000, 1.000000000000000000, 0.0000000000000000000 ) ) ;
#83 = EDGE_CURVE ( 'NONE', #179, #179, #133, .T. ) ;
#84 = DIRECTION ( 'NONE',  ( -2.086455829391541865E-30, 1.000000000000000000, -5.975847002759201562E-16 ) ) ;
#85 = ORIENTED_EDGE ( 'NONE', *, *, #83, .T. ) ;
#86 = ADVANCED_BREP_SHAPE_REPRESENTATION ( '321308', ( #113, #118, #211 ), #6 ) ;
#87 = FACE_OUTER_BOUND ( 'NONE', #66, .T. ) ;
#88 = CARTESIAN_POINT ( 'NONE',  ( 3.552560311875939069E-14, -1.068060359116797620E-15, 10.17493713156446056 ) ) ;
#89 = AXIS2_PLACEMENT_3D ( 'NONE', #199, #18, #94 ) ;
#90 = DIRECTION ( 'NONE',  ( 0.0000000000000000000, 1.000000000000000000, 0.0000000000000000000 ) ) ;
#91 = EDGE_CURVE ( 'NONE', #159, #159, #67, .T. ) ;
#92 = VERTEX_POINT ( 'NONE', #160 ) ;
#93 = DIRECTION ( 'NONE',  ( -3.491481338843133355E-15, 1.049697256412017316E-16, -1.000000000000000000 ) ) ;
#94 = DIRECTION ( 'NONE',  ( -2.086455829391541865E-30, 1.000000000000000000, -5.975847002759199589E-16 ) ) ;
#95 = MECHANICAL_CONTEXT ( 'NONE', #178, 'mechanical' ) ;
#96 = DESIGN_CONTEXT ( 'detailed design', #22, 'design' ) ;
#97 = PERSON_AND_ORGANIZATION ( #17, #68 ) ;
#98 = DATE_TIME_ROLE ( 'classification_date' ) ;
#99 = ADVANCED_FACE ( 'NONE', ( #156, #64 ), #128, .T. ) ;
#100 = CARTESIAN_POINT ( 'NONE',  ( 3.732559057362295634E-30, 6.388463718082131545E-31, 1.069047402842210583E-15 ) ) ;
#101 = APPROVAL ( #205, 'UNSPECIFIED' ) ;
#102 = ORIENTED_EDGE ( 'NONE', *, *, #187, .F. ) ;
#103 = AXIS2_PLACEMENT_3D ( 'NONE', #20, #176, #241 ) ;
#104 = EDGE_LOOP ( 'NONE', ( #173 ) ) ;
#105 = ADVANCED_FACE ( 'NONE', ( #222, #202 ), #109, .T. ) ;
#106 = EDGE_LOOP ( 'NONE', ( #44 ) ) ;
#107 = DIRECTION ( 'NONE',  ( 0.0000000000000000000, 1.000000000000000000, 0.0000000000000000000 ) ) ;
#108 = DIRECTION ( 'NONE',  ( 3.491481338843133355E-15, 5.975847002759200576E-16, 1.000000000000000000 ) ) ;
#109 = CONICAL_SURFACE ( 'NONE', #1, 1.499999999999997558, 0.7853981633974573828 ) ;
#110 = CC_DESIGN_PERSON_AND_ORGANIZATION_ASSIGNMENT ( #97, #165, ( #111 ) ) ;
#111 = SECURITY_CLASSIFICATION ( '', '', #36 ) ;
#112 = CARTESIAN_POINT ( 'NONE',  ( 8.728703347107875789E-16, 1.493961750689807293E-16, 0.2500000000000012212 ) ) ;
#113 = MANIFOLD_SOLID_BREP ( 'Corps-Déplacer/Copier1[1]', #195 ) ;
#114 = FACE_OUTER_BOUND ( 'NONE', #30, .T. ) ;
#115 = DIRECTION ( 'NONE',  ( 2.086455829391541865E-30, -1.000000000000000000, 5.975847002759200576E-16 ) ) ;
#116 =( LENGTH_UNIT ( ) NAMED_UNIT ( * ) SI_UNIT ( .MILLI., .METRE. ) );
#117 = CALENDAR_DATE ( 2021, 26, 11 ) ;
#118 = MANIFOLD_SOLID_BREP ( 'Corps-Déplacer/Copier1[2]', #125 ) ;
#119 = CIRCLE ( 'NONE', #149, 2.023999999999992916 ) ;
#120 = AXIS2_PLACEMENT_3D ( 'NONE', #181, #93, #51 ) ;
#121 = DATE_AND_TIME ( #186, #189 ) ;
#122 = CIRCLE ( 'NONE', #218, 1.199999999999997513 ) ;
#123 = ORIENTED_EDGE ( 'NONE', *, *, #200, .T. ) ;
#124 = CC_DESIGN_PERSON_AND_ORGANIZATION_ASSIGNMENT ( #208, #229, ( #214 ) ) ;
#125 = CLOSED_SHELL ( 'NONE', ( #155, #131, #99, #169 ) ) ;
#126 = CARTESIAN_POINT ( 'NONE',  ( 2.444036937190193601E-13, -7.347880794884121511E-15, 70.00000000000000000 ) ) ;
#127 = PLANE ( 'NONE',  #103 ) ;
#128 = CONICAL_SURFACE ( 'NONE', #80, 1.879662432702592811, 0.5235987755982977054 ) ;
#129 = DIRECTION ( 'NONE',  ( -2.093402113464388137E-30, 1.000000000000000000, -5.892403111334267001E-16 ) ) ;
#130 = CYLINDRICAL_SURFACE ( 'NONE', #120, 1.499999999999995337 ) ;
#131 = ADVANCED_FACE ( 'NONE', ( #75, #32 ), #15, .T. ) ;
#132 = PLANE ( 'NONE',  #23 ) ;
#133 = CIRCLE ( 'NONE', #47, 1.499999999999997558 ) ;
#134 = DATE_TIME_ROLE ( 'creation_date' ) ;
#135 = ADVANCED_FACE ( 'NONE', ( #114 ), #132, .T. ) ;
#136 = PERSON_AND_ORGANIZATION ( #17, #68 ) ;
#137 = LOCAL_TIME ( 14, 2, 23.00000000000000000, #78 ) ;
#138 = EDGE_CURVE ( 'NONE', #70, #70, #223, .T. ) ;
#139 = ADVANCED_FACE ( 'NONE', ( #240, #35 ), #130, .T. ) ;
#140 = AXIS2_PLACEMENT_3D ( 'NONE', #11, #8, #9 ) ;
#141 = FACE_BOUND ( 'NONE', #27, .T. ) ;
#142 = DIRECTION ( 'NONE',  ( 3.491481338843133355E-15, 5.975847002759200576E-16, 1.000000000000000000 ) ) ;
#143 = CARTESIAN_POINT ( 'NONE',  ( 3.552560311875939069E-14, 2.023999999999998689, 10.17493713156446056 ) ) ;
#144 = AXIS2_PLACEMENT_3D ( 'NONE', #112, #55, #129 ) ;
#145 = CARTESIAN_POINT ( 'NONE',  ( 3.869445280877825183E-14, 1.499999999999991562, 11.08253175473057617 ) ) ;
#146 = DIRECTION ( 'NONE',  ( -3.491481338843133355E-15, 1.049697256412017316E-16, -1.000000000000000000 ) ) ;
#147 = CARTESIAN_POINT ( 'NONE',  ( 3.869445280877825183E-14, -1.163330317703974635E-15, 11.08253175473057617 ) ) ;
#148 = PERSON_AND_ORGANIZATION ( #17, #68 ) ;
#149 = AXIS2_PLACEMENT_3D ( 'NONE', #221, #216, #34 ) ;
#150 = APPROVAL_ROLE ( '' ) ;
#151 = APPLICATION_PROTOCOL_DEFINITION ( 'international standard', 'config_control_design', 1994, #178 ) ;
#152 = APPROVAL_PERSON_ORGANIZATION ( #168, #49, #150 ) ;
#153 = EDGE_LOOP ( 'NONE', ( #196 ) ) ;
#154 = ORIENTED_EDGE ( 'NONE', *, *, #91, .F. ) ;
#155 = ADVANCED_FACE ( 'NONE', ( #183 ), #177, .T. ) ;
#156 = FACE_OUTER_BOUND ( 'NONE', #65, .T. ) ;
#157 = ORIENTED_EDGE ( 'NONE', *, *, #200, .F. ) ;
#158 = DIRECTION ( 'NONE',  ( -3.491481338843133355E-15, 1.049697256412017316E-16, -1.000000000000000000 ) ) ;
#159 = VERTEX_POINT ( 'NONE', #238 ) ;
#160 = CARTESIAN_POINT ( 'NONE',  ( 8.728703347107833388E-16, 2.023999999999998689, 0.2500000000000000000 ) ) ;
#161 = CARTESIAN_POINT ( 'NONE',  ( 2.433562493173664138E-13, -7.316389877191761450E-15, 69.70000000000001705 ) ) ;
#162 = CC_DESIGN_SECURITY_CLASSIFICATION ( #111, ( #233 ) ) ;
#163 = CARTESIAN_POINT ( 'NONE',  ( 3.552560311875939700E-14, 2.023999999999998689, 10.17493713156446233 ) ) ;
#164 = APPROVAL_ROLE ( '' ) ;
#165 = PERSON_AND_ORGANIZATION_ROLE ( 'classification_officer' ) ;
#166 = AXIS2_PLACEMENT_3D ( 'NONE', #232, #215, #48 ) ;
#167 = CC_DESIGN_APPROVAL ( #49, ( #111 ) ) ;
#168 = PERSON_AND_ORGANIZATION ( #17, #68 ) ;
#169 = ADVANCED_FACE ( 'NONE', ( #237 ), #127, .T. ) ;
#170 = APPLICATION_PROTOCOL_DEFINITION ( 'international standard', 'config_control_design', 1994, #22 ) ;
#171 = CARTESIAN_POINT ( 'NONE',  ( 2.433562493173664138E-13, -7.316389877191761450E-15, 69.70000000000001705 ) ) ;
#172 = EDGE_LOOP ( 'NONE', ( #157 ) ) ;
#173 = ORIENTED_EDGE ( 'NONE', *, *, #180, .T. ) ;
#174 = ORIENTED_EDGE ( 'NONE', *, *, #187, .T. ) ;
#175 = CC_DESIGN_PERSON_AND_ORGANIZATION_ASSIGNMENT ( #148, #62, ( #233 ) ) ;
#176 = DIRECTION ( 'NONE',  ( -3.491481338843133355E-15, -5.975847002759200576E-16, -1.000000000000000000 ) ) ;
#177 = PLANE ( 'NONE',  #57 ) ;
#178 = APPLICATION_CONTEXT ( 'configuration controlled 3d designs of mechanical parts and assemblies' ) ;
#179 = VERTEX_POINT ( 'NONE', #197 ) ;
#180 = EDGE_CURVE ( 'NONE', #201, #201, #122, .T. ) ;
#181 = CARTESIAN_POINT ( 'NONE',  ( 0.0000000000000000000, 0.0000000000000000000, 0.0000000000000000000 ) ) ;
#182 = AXIS2_PLACEMENT_3D ( 'NONE', #100, #193, #84 ) ;
#183 = FACE_OUTER_BOUND ( 'NONE', #12, .T. ) ;
#184 =( NAMED_UNIT ( * ) SI_UNIT ( $, .STERADIAN. ) SOLID_ANGLE_UNIT ( ) );
#185 = UNCERTAINTY_MEASURE_WITH_UNIT (LENGTH_MEASURE( 1.000000000000000082E-05 ), #116, 'distance_accuracy_value', 'NONE');
#186 = CALENDAR_DATE ( 2021, 26, 11 ) ;
#187 = EDGE_CURVE ( 'NONE', #217, #217, #119, .T. ) ;
#188 = DATE_AND_TIME ( #117, #225 ) ;
#189 = LOCAL_TIME ( 14, 2, 23.00000000000000000, #61 ) ;
#190 = DIRECTION ( 'NONE',  ( 1.000000000000000000, 0.0000000000000000000, 0.0000000000000000000 ) ) ;
#191 = PERSON_AND_ORGANIZATION ( #17, #68 ) ;
#192 = CALENDAR_DATE ( 2021, 26, 11 ) ;
#193 = DIRECTION ( 'NONE',  ( -3.491481338843133355E-15, -5.975847002759200576E-16, -1.000000000000000000 ) ) ;
#194 = EDGE_LOOP ( 'NONE', ( #63 ) ) ;
#195 = CLOSED_SHELL ( 'NONE', ( #3, #105, #139, #71, #135 ) ) ;
#196 = ORIENTED_EDGE ( 'NONE', *, *, #138, .F. ) ;
#197 = CARTESIAN_POINT ( 'NONE',  ( 2.433562493173664138E-13, 1.499999999999990230, 69.70000000000001705 ) ) ;
#198 = APPROVAL_PERSON_ORGANIZATION ( #136, #26, #164 ) ;
#199 = CARTESIAN_POINT ( 'NONE',  ( 0.0000000000000000000, 0.0000000000000000000, 0.0000000000000000000 ) ) ;
#200 = EDGE_CURVE ( 'NONE', #92, #92, #40, .T. ) ;
#201 = VERTEX_POINT ( 'NONE', #220 ) ;
#202 = FACE_OUTER_BOUND ( 'NONE', #106, .T. ) ;
#203 = PERSON_AND_ORGANIZATION ( #17, #68 ) ;
#204 = CC_DESIGN_APPROVAL ( #26, ( #29 ) ) ;
#205 = APPROVAL_STATUS ( 'not_yet_approved' ) ;
#206 = AXIS2_PLACEMENT_3D ( 'NONE', #147, #50, #107 ) ;
#207 = LOCAL_TIME ( 14, 2, 23.00000000000000000, #228 ) ;
#208 = PERSON_AND_ORGANIZATION ( #17, #68 ) ;
#209 = DATE_AND_TIME ( #192, #207 ) ;
#210 = FACE_OUTER_BOUND ( 'NONE', #153, .T. ) ;
#211 = AXIS2_PLACEMENT_3D ( 'NONE', #224, #76, #190 ) ;
#212 = EDGE_LOOP ( 'NONE', ( #174 ) ) ;
#213 = CARTESIAN_POINT ( 'NONE',  ( 3.732559057362295634E-30, 6.388463718082131545E-31, 1.069047402842210583E-15 ) ) ;
#214 = PRODUCT ( '321308', '321308', '', ( #95 ) ) ;
#215 = DIRECTION ( 'NONE',  ( -3.491481338843133355E-15, 1.049697256412017316E-16, -1.000000000000000000 ) ) ;
#216 = DIRECTION ( 'NONE',  ( -3.491481338843133355E-15, -5.975847002759200576E-16, -1.000000000000000000 ) ) ;
#217 = VERTEX_POINT ( 'NONE', #16 ) ;
#218 = AXIS2_PLACEMENT_3D ( 'NONE', #126, #146, #90 ) ;
#219 = LOCAL_TIME ( 14, 2, 23.00000000000000000, #2 ) ;
#220 = CARTESIAN_POINT ( 'NONE',  ( 2.444036937190193601E-13, 1.199999999999990186, 70.00000000000000000 ) ) ;
#221 = CARTESIAN_POINT ( 'NONE',  ( 3.552560311875939700E-14, 6.080386756092278874E-15, 10.17493713156446233 ) ) ;
#222 = FACE_BOUND ( 'NONE', #104, .T. ) ;
#223 = CIRCLE ( 'NONE', #52, 2.023999999999999577 ) ;
#224 = CARTESIAN_POINT ( 'NONE',  ( 0.0000000000000000000, 0.0000000000000000000, 0.0000000000000000000 ) ) ;
#225 = LOCAL_TIME ( 14, 2, 23.00000000000000000, #21 ) ;
#226 = APPROVAL_STATUS ( 'not_yet_approved' ) ;
#227 = CC_DESIGN_PERSON_AND_ORGANIZATION_ASSIGNMENT ( #203, #38, ( #29 ) ) ;
#228 = COORDINATED_UNIVERSAL_TIME_OFFSET ( 1, 0, .AHEAD. ) ;
#229 = PERSON_AND_ORGANIZATION_ROLE ( 'design_owner' ) ;
#230 =( NAMED_UNIT ( * ) PLANE_ANGLE_UNIT ( ) SI_UNIT ( $, .RADIAN. ) );
#231 = ORIENTED_EDGE ( 'NONE', *, *, #180, .F. ) ;
#232 = CARTESIAN_POINT ( 'NONE',  ( 3.552560311875939069E-14, -1.068060359116797620E-15, 10.17493713156446056 ) ) ;
#233 = PRODUCT_DEFINITION_FORMATION_WITH_SPECIFIED_SOURCE ( 'ANY', '', #214, .NOT_KNOWN. ) ;
#234 = PLANE ( 'NONE',  #140 ) ;
#235 = APPROVAL_DATE_TIME ( #209, #49 ) ;
#236 = ORIENTED_EDGE ( 'NONE', *, *, #242, .T. ) ;
#237 = FACE_OUTER_BOUND ( 'NONE', #43, .T. ) ;
#238 = CARTESIAN_POINT ( 'NONE',  ( -1.892735826383154569E-31, 1.879662432702592811, -5.421010862427522170E-17 ) ) ;
#239 = VERTEX_POINT ( 'NONE', #145 ) ;
#240 = FACE_OUTER_BOUND ( 'NONE', #28, .T. ) ;
#241 = DIRECTION ( 'NONE',  ( -2.086455829391541865E-30, 1.000000000000000000, -5.975847002759200576E-16 ) ) ;
#242 = EDGE_CURVE ( 'NONE', #239, #239, #73, .T. ) ;
#243 = DATE_AND_TIME ( #4, #219 ) ;
ENDSEC;
END-ISO-10303-21;
