ISO-10303-21;
HEADER;
FILE_DESCRIPTION (( 'STEP AP203' ),
    '1' );
FILE_NAME ('321307.step',
    '2021-11-26T13:02:22',
    ( '' ),
    ( '' ),
    'SwSTEP 2.0',
    'SolidWorks 2019',
    '' );
FILE_SCHEMA (( 'CONFIG_CONTROL_DESIGN' ));
ENDSEC;

DATA;
#1 = DATE_TIME_ROLE ( 'creation_date' ) ;
#2 =( NAMED_UNIT ( * ) PLANE_ANGLE_UNIT ( ) SI_UNIT ( $, .RADIAN. ) );
#3 = PERSON_AND_ORGANIZATION_ROLE ( 'design_supplier' ) ;
#4 = APPROVAL ( #131, 'UNSPECIFIED' ) ;
#5 = VERTEX_POINT ( 'NONE', #152 ) ;
#6 = AXIS2_PLACEMENT_3D ( 'NONE', #187, #101, #74 ) ;
#7 = ORGANIZATION ( 'UNSPECIFIED', 'UNSPECIFIED', '' ) ;
#8 = PRODUCT_RELATED_PRODUCT_CATEGORY ( 'detail', '', ( #145 ) ) ;
#9 = PERSON_AND_ORGANIZATION_ROLE ( 'classification_officer' ) ;
#10 = ORIENTED_EDGE ( 'NONE', *, *, #233, .T. ) ;
#11 = ORIENTED_EDGE ( 'NONE', *, *, #78, .F. ) ;
#12 = APPROVAL_ROLE ( '' ) ;
#13 = ORIENTED_EDGE ( 'NONE', *, *, #129, .F. ) ;
#14 = AXIS2_PLACEMENT_3D ( 'NONE', #29, #107, #180 ) ;
#15 = DIRECTION ( 'NONE',  ( 0.0000000000000000000, 1.000000000000000000, 0.0000000000000000000 ) ) ;
#16 = CARTESIAN_POINT ( 'NONE',  ( 3.555584023412215942E-14, 6.078265605614827208E-15, 10.18359738560230277 ) ) ;
#17 = CARTESIAN_POINT ( 'NONE',  ( 0.0000000000000000000, 0.0000000000000000000, 0.0000000000000000000 ) ) ;
#18 = DIRECTION ( 'NONE',  ( 3.491481338843133355E-15, -1.049697256412017316E-16, 1.000000000000000000 ) ) ;
#19 = DIRECTION ( 'NONE',  ( -3.491481338843133355E-15, 1.049697256412017316E-16, -1.000000000000000000 ) ) ;
#20 = DATE_AND_TIME ( #190, #174 ) ;
#21 = AXIS2_PLACEMENT_3D ( 'NONE', #44, #118, #202 ) ;
#22 = CC_DESIGN_PERSON_AND_ORGANIZATION_ASSIGNMENT ( #40, #121, ( #58 ) ) ;
#23 = CARTESIAN_POINT ( 'NONE',  ( 2.444036937190193601E-13, 1.199999999999990186, 70.00000000000000000 ) ) ;
#24 = CC_DESIGN_DATE_AND_TIME_ASSIGNMENT ( #90, #106, ( #102 ) ) ;
#25 = AXIS2_PLACEMENT_3D ( 'NONE', #243, #72, #57 ) ;
#26 = PERSON_AND_ORGANIZATION ( #119, #7 ) ;
#27 = EDGE_LOOP ( 'NONE', ( #136 ) ) ;
#28 = AXIS2_PLACEMENT_3D ( 'NONE', #218, #114, #128 ) ;
#29 = CARTESIAN_POINT ( 'NONE',  ( -2.047992152479003416E-30, 1.874662432702592474, -5.865682653648621717E-16 ) ) ;
#30 = ADVANCED_FACE ( 'NONE', ( #125, #198 ), #231, .T. ) ;
#31 = CARTESIAN_POINT ( 'NONE',  ( 3.869445280877825183E-14, -1.163330317703974635E-15, 11.08253175473057617 ) ) ;
#32 = CARTESIAN_POINT ( 'NONE',  ( 3.717437139681374604E-30, 6.354953267417371096E-31, 1.064716313481173900E-15 ) ) ;
#33 = ADVANCED_FACE ( 'NONE', ( #215 ), #49, .T. ) ;
#34 = CARTESIAN_POINT ( 'NONE',  ( 3.555584023412215942E-14, 2.018999999999998796, 10.18359738560230277 ) ) ;
#35 = FACE_BOUND ( 'NONE', #71, .T. ) ;
#36 = CIRCLE ( 'NONE', #236, 1.199999999999997513 ) ;
#37 = APPROVAL_PERSON_ORGANIZATION ( #228, #4, #212 ) ;
#38 = DIRECTION ( 'NONE',  ( 0.0000000000000000000, 1.000000000000000000, 0.0000000000000000000 ) ) ;
#39 = COORDINATED_UNIVERSAL_TIME_OFFSET ( 1, 0, .AHEAD. ) ;
#40 = PERSON_AND_ORGANIZATION ( #119, #7 ) ;
#41 = EDGE_CURVE ( 'NONE', #130, #130, #134, .T. ) ;
#42 = MECHANICAL_CONTEXT ( 'NONE', #86, 'mechanical' ) ;
#43 = CALENDAR_DATE ( 2021, 26, 11 ) ;
#44 = CARTESIAN_POINT ( 'NONE',  ( 3.555584023412216573E-14, -1.068969423607133147E-15, 10.18359738560230454 ) ) ;
#45 = ADVANCED_BREP_SHAPE_REPRESENTATION ( '321307', ( #64, #66, #211 ), #181 ) ;
#46 = ADVANCED_FACE ( 'NONE', ( #206 ), #208, .T. ) ;
#47 = ORIENTED_EDGE ( 'NONE', *, *, #100, .T. ) ;
#48 = EDGE_LOOP ( 'NONE', ( #13 ) ) ;
#49 = PLANE ( 'NONE',  #14 ) ;
#50 = EDGE_CURVE ( 'NONE', #75, #75, #191, .T. ) ;
#51 = DIRECTION ( 'NONE',  ( -2.083954238463940997E-30, 1.000000000000000000, -5.968682161579125188E-16 ) ) ;
#52 = CYLINDRICAL_SURFACE ( 'NONE', #216, 2.018999999999995687 ) ;
#53 = AXIS2_PLACEMENT_3D ( 'NONE', #34, #144, #164 ) ;
#54 = APPROVAL_PERSON_ORGANIZATION ( #148, #200, #209 ) ;
#55 = CARTESIAN_POINT ( 'NONE',  ( 3.555584023412216573E-14, 2.018999999999998796, 10.18359738560230454 ) ) ;
#56 = VERTEX_POINT ( 'NONE', #170 ) ;
#57 = DIRECTION ( 'NONE',  ( -3.052489263020890240E-30, 1.000000000000000000, -8.591993442183325775E-16 ) ) ;
#58 = PRODUCT_DEFINITION_FORMATION_WITH_SPECIFIED_SOURCE ( 'ANY', '', #145, .NOT_KNOWN. ) ;
#59 = VERTEX_POINT ( 'NONE', #23 ) ;
#60 = DATE_AND_TIME ( #81, #161 ) ;
#61 = VERTEX_POINT ( 'NONE', #83 ) ;
#62 = APPLICATION_PROTOCOL_DEFINITION ( 'international standard', 'config_control_design', 1994, #86 ) ;
#63 = EDGE_LOOP ( 'NONE', ( #178 ) ) ;
#64 = MANIFOLD_SOLID_BREP ( 'Corps-Déplacer/Copier1[1]', #203 ) ;
#65 = PERSON_AND_ORGANIZATION ( #119, #7 ) ;
#66 = MANIFOLD_SOLID_BREP ( 'Corps-Déplacer/Copier1[2]', #103 ) ;
#67 = APPROVAL_STATUS ( 'not_yet_approved' ) ;
#68 = ORIENTED_EDGE ( 'NONE', *, *, #50, .F. ) ;
#69 = CC_DESIGN_PERSON_AND_ORGANIZATION_ASSIGNMENT ( #193, #3, ( #58 ) ) ;
#70 = AXIS2_PLACEMENT_3D ( 'NONE', #184, #188, #185 ) ;
#71 = EDGE_LOOP ( 'NONE', ( #10 ) ) ;
#72 = DIRECTION ( 'NONE',  ( -3.491481338843133355E-15, -5.968682161579125188E-16, -1.000000000000000000 ) ) ;
#73 = DIRECTION ( 'NONE',  ( 3.491481338843133355E-15, 5.968682161579125188E-16, 1.000000000000000000 ) ) ;
#74 = DIRECTION ( 'NONE',  ( 3.664998382197393967E-31, 1.000000000000000000, 1.049697256412017316E-16 ) ) ;
#75 = VERTEX_POINT ( 'NONE', #224 ) ;
#76 = PRODUCT_DEFINITION_SHAPE ( 'NONE', 'NONE',  #242 ) ;
#77 = FACE_OUTER_BOUND ( 'NONE', #234, .T. ) ;
#78 = EDGE_CURVE ( 'NONE', #56, #56, #220, .T. ) ;
#79 = VERTEX_POINT ( 'NONE', #173 ) ;
#80 = PERSON_AND_ORGANIZATION ( #119, #7 ) ;
#81 = CALENDAR_DATE ( 2021, 26, 11 ) ;
#82 = ADVANCED_FACE ( 'NONE', ( #35, #77 ), #159, .T. ) ;
#83 = CARTESIAN_POINT ( 'NONE',  ( 8.728703347107833388E-16, 2.018999999999998796, 0.2500000000000000000 ) ) ;
#84 = AXIS2_PLACEMENT_3D ( 'NONE', #113, #18, #241 ) ;
#85 = PERSON_AND_ORGANIZATION_ROLE ( 'design_owner' ) ;
#86 = APPLICATION_CONTEXT ( 'configuration controlled 3d designs of mechanical parts and assemblies' ) ;
#87 = EDGE_CURVE ( 'NONE', #5, #5, #192, .T. ) ;
#88 = ORIENTED_EDGE ( 'NONE', *, *, #41, .T. ) ;
#89 = ORIENTED_EDGE ( 'NONE', *, *, #78, .T. ) ;
#90 = DATE_AND_TIME ( #154, #123 ) ;
#91 = EDGE_LOOP ( 'NONE', ( #88 ) ) ;
#92 = UNCERTAINTY_MEASURE_WITH_UNIT (LENGTH_MEASURE( 1.000000000000000082E-05 ), #171, 'distance_accuracy_value', 'NONE');
#93 = AXIS2_PLACEMENT_3D ( 'NONE', #32, #126, #51 ) ;
#94 = CC_DESIGN_APPROVAL ( #225, ( #102 ) ) ;
#95 = CYLINDRICAL_SURFACE ( 'NONE', #6, 1.499999999999995337 ) ;
#96 = ADVANCED_FACE ( 'NONE', ( #99, #163 ), #115, .T. ) ;
#97 = DIRECTION ( 'NONE',  ( -3.491481338843133355E-15, 1.049697256412017316E-16, -1.000000000000000000 ) ) ;
#98 = FACE_OUTER_BOUND ( 'NONE', #156, .T. ) ;
#99 = FACE_OUTER_BOUND ( 'NONE', #105, .T. ) ;
#100 = EDGE_CURVE ( 'NONE', #61, #61, #186, .T. ) ;
#101 = DIRECTION ( 'NONE',  ( -3.491481338843133355E-15, 1.049697256412017316E-16, -1.000000000000000000 ) ) ;
#102 = SECURITY_CLASSIFICATION ( '', '', #151 ) ;
#103 = CLOSED_SHELL ( 'NONE', ( #172, #153, #96, #33 ) ) ;
#104 = COORDINATED_UNIVERSAL_TIME_OFFSET ( 1, 0, .AHEAD. ) ;
#105 = EDGE_LOOP ( 'NONE', ( #47 ) ) ;
#106 = DATE_TIME_ROLE ( 'classification_date' ) ;
#107 = DIRECTION ( 'NONE',  ( -3.491481338843133355E-15, -5.968682161579125188E-16, -1.000000000000000000 ) ) ;
#108 = EDGE_LOOP ( 'NONE', ( #176 ) ) ;
#109 = AXIS2_PLACEMENT_3D ( 'NONE', #201, #157, #138 ) ;
#110 = ORIENTED_EDGE ( 'NONE', *, *, #41, .F. ) ;
#111 = DIRECTION ( 'NONE',  ( -2.083954238463940997E-30, 1.000000000000000000, -5.968682161579125188E-16 ) ) ;
#112 = CC_DESIGN_DATE_AND_TIME_ASSIGNMENT ( #60, #1, ( #242 ) ) ;
#113 = CARTESIAN_POINT ( 'NONE',  ( 2.444036937190193601E-13, -7.347880794884121511E-15, 70.00000000000000000 ) ) ;
#114 = DIRECTION ( 'NONE',  ( 3.491481338843133355E-15, 5.968682161579125188E-16, 1.000000000000000000 ) ) ;
#115 = CONICAL_SURFACE ( 'NONE', #28, 1.874662432702592474, 0.5235987755982977054 ) ;
#116 = DIRECTION ( 'NONE',  ( 0.0000000000000000000, 1.000000000000000000, 0.0000000000000000000 ) ) ;
#117 = CC_DESIGN_APPROVAL ( #4, ( #242 ) ) ;
#118 = DIRECTION ( 'NONE',  ( -3.491481338843133355E-15, 1.049697256412017316E-16, -1.000000000000000000 ) ) ;
#119 = PERSON ( 'UNSPECIFIED', 'UNSPECIFIED', 'UNSPECIFIED', ('UNSPECIFIED'), ('UNSPECIFIED'), ('UNSPECIFIED') ) ;
#120 = COORDINATED_UNIVERSAL_TIME_OFFSET ( 1, 0, .AHEAD. ) ;
#121 = PERSON_AND_ORGANIZATION_ROLE ( 'creator' ) ;
#122 = LOCAL_TIME ( 14, 2, 22.00000000000000000, #120 ) ;
#123 = LOCAL_TIME ( 14, 2, 22.00000000000000000, #158 ) ;
#124 = DATE_AND_TIME ( #43, #122 ) ;
#125 = FACE_BOUND ( 'NONE', #63, .T. ) ;
#126 = DIRECTION ( 'NONE',  ( -3.491481338843133355E-15, -5.968682161579125188E-16, -1.000000000000000000 ) ) ;
#127 = CARTESIAN_POINT ( 'NONE',  ( 2.444036937190193601E-13, -7.347880794884121511E-15, 70.00000000000000000 ) ) ;
#128 = DIRECTION ( 'NONE',  ( 2.083954238463941348E-30, -1.000000000000000000, 5.968682161579125188E-16 ) ) ;
#129 = EDGE_CURVE ( 'NONE', #79, #79, #197, .T. ) ;
#130 = VERTEX_POINT ( 'NONE', #55 ) ;
#131 = APPROVAL_STATUS ( 'not_yet_approved' ) ;
#132 = APPROVAL_STATUS ( 'not_yet_approved' ) ;
#133 = APPLICATION_PROTOCOL_DEFINITION ( 'international standard', 'config_control_design', 1994, #219 ) ;
#134 = CIRCLE ( 'NONE', #21, 2.018999999999999684 ) ;
#135 = CALENDAR_DATE ( 2021, 26, 11 ) ;
#136 = ORIENTED_EDGE ( 'NONE', *, *, #100, .F. ) ;
#137 = EDGE_LOOP ( 'NONE', ( #162 ) ) ;
#138 = DIRECTION ( 'NONE',  ( 0.0000000000000000000, 1.000000000000000000, 0.0000000000000000000 ) ) ;
#139 = EDGE_LOOP ( 'NONE', ( #89 ) ) ;
#140 = DESIGN_CONTEXT ( 'detailed design', #219, 'design' ) ;
#141 = CARTESIAN_POINT ( 'NONE',  ( 2.433562493173664138E-13, -7.316389877191761450E-15, 69.70000000000001705 ) ) ;
#142 = FACE_OUTER_BOUND ( 'NONE', #108, .T. ) ;
#143 = FACE_OUTER_BOUND ( 'NONE', #137, .T. ) ;
#144 = DIRECTION ( 'NONE',  ( -3.491481338843133355E-15, 1.049697256412017316E-16, -1.000000000000000000 ) ) ;
#145 = PRODUCT ( '321307', '321307', '', ( #42 ) ) ;
#146 = DIRECTION ( 'NONE',  ( -3.491481338843133355E-15, 1.049697256412017316E-16, -1.000000000000000000 ) ) ;
#147 = AXIS2_PLACEMENT_3D ( 'NONE', #141, #19, #38 ) ;
#148 = PERSON_AND_ORGANIZATION ( #119, #7 ) ;
#149 = DIRECTION ( 'NONE',  ( 0.0000000000000000000, 0.0000000000000000000, 1.000000000000000000 ) ) ;
#150 = CC_DESIGN_PERSON_AND_ORGANIZATION_ASSIGNMENT ( #80, #85, ( #145 ) ) ;
#151 = SECURITY_CLASSIFICATION_LEVEL ( 'unclassified' ) ;
#152 = CARTESIAN_POINT ( 'NONE',  ( 2.433562493173664138E-13, 1.499999999999990230, 69.70000000000001705 ) ) ;
#153 = ADVANCED_FACE ( 'NONE', ( #142, #226 ), #52, .T. ) ;
#154 = CALENDAR_DATE ( 2021, 26, 11 ) ;
#155 = EDGE_LOOP ( 'NONE', ( #68 ) ) ;
#156 = EDGE_LOOP ( 'NONE', ( #232 ) ) ;
#157 = DIRECTION ( 'NONE',  ( -3.491481338843133355E-15, 1.049697256412017316E-16, -1.000000000000000000 ) ) ;
#158 = COORDINATED_UNIVERSAL_TIME_OFFSET ( 1, 0, .AHEAD. ) ;
#159 = CONICAL_SURFACE ( 'NONE', #199, 1.499999999999997558, 0.7853981633974573828 ) ;
#160 = ADVANCED_FACE ( 'NONE', ( #98, #183 ), #95, .T. ) ;
#161 = LOCAL_TIME ( 14, 2, 22.00000000000000000, #104 ) ;
#162 = ORIENTED_EDGE ( 'NONE', *, *, #233, .F. ) ;
#163 = FACE_BOUND ( 'NONE', #235, .T. ) ;
#164 = DIRECTION ( 'NONE',  ( 3.664998382197393967E-31, 1.000000000000000000, 1.049697256412017316E-16 ) ) ;
#165 = ADVANCED_FACE ( 'NONE', ( #143 ), #205, .T. ) ;
#166 = CARTESIAN_POINT ( 'NONE',  ( 2.433562493173664138E-13, -7.316389877191761450E-15, 69.70000000000001705 ) ) ;
#167 = FACE_OUTER_BOUND ( 'NONE', #155, .T. ) ;
#168 = PERSON_AND_ORGANIZATION_ROLE ( 'creator' ) ;
#169 = AXIS2_PLACEMENT_3D ( 'NONE', #31, #97, #116 ) ;
#170 = CARTESIAN_POINT ( 'NONE',  ( -1.892735826383161356E-31, 1.874662432702592474, -5.421010862427522170E-17 ) ) ;
#171 =( LENGTH_UNIT ( ) NAMED_UNIT ( * ) SI_UNIT ( .MILLI., .METRE. ) );
#172 = ADVANCED_FACE ( 'NONE', ( #167 ), #237, .T. ) ;
#173 = CARTESIAN_POINT ( 'NONE',  ( 3.869445280877825183E-14, 1.499999999999991562, 11.08253175473057617 ) ) ;
#174 = LOCAL_TIME ( 14, 2, 22.00000000000000000, #39 ) ;
#175 = COORDINATED_UNIVERSAL_TIME_OFFSET ( 1, 0, .AHEAD. ) ;
#176 = ORIENTED_EDGE ( 'NONE', *, *, #50, .T. ) ;
#177 = DATE_AND_TIME ( #135, #182 ) ;
#178 = ORIENTED_EDGE ( 'NONE', *, *, #129, .T. ) ;
#179 = ORIENTED_EDGE ( 'NONE', *, *, #87, .F. ) ;
#180 = DIRECTION ( 'NONE',  ( -2.083954238463940997E-30, 1.000000000000000000, -5.968682161579125188E-16 ) ) ;
#181 =( GEOMETRIC_REPRESENTATION_CONTEXT ( 3 ) GLOBAL_UNCERTAINTY_ASSIGNED_CONTEXT ( ( #92 ) ) GLOBAL_UNIT_ASSIGNED_CONTEXT ( ( #171, #2, #227 ) ) REPRESENTATION_CONTEXT ( 'NONE', 'WORKASPACE' ) );
#182 = LOCAL_TIME ( 14, 2, 22.00000000000000000, #175 ) ;
#183 = FACE_OUTER_BOUND ( 'NONE', #48, .T. ) ;
#184 = CARTESIAN_POINT ( 'NONE',  ( 8.728703347107875789E-16, 1.492170540394788446E-16, 0.2500000000000012212 ) ) ;
#185 = DIRECTION ( 'NONE',  ( -2.098586368326855712E-30, 1.000000000000000000, -5.906995491501018660E-16 ) ) ;
#186 = CIRCLE ( 'NONE', #70, 2.018999999999998796 ) ;
#187 = CARTESIAN_POINT ( 'NONE',  ( 0.0000000000000000000, 0.0000000000000000000, 0.0000000000000000000 ) ) ;
#188 = DIRECTION ( 'NONE',  ( -3.491481338843133355E-15, -5.968682161579125188E-16, -1.000000000000000000 ) ) ;
#189 = CC_DESIGN_PERSON_AND_ORGANIZATION_ASSIGNMENT ( #26, #168, ( #242 ) ) ;
#190 = CALENDAR_DATE ( 2021, 26, 11 ) ;
#191 = CIRCLE ( 'NONE', #25, 2.018999999999992578 ) ;
#192 = CIRCLE ( 'NONE', #147, 1.499999999999997558 ) ;
#193 = PERSON_AND_ORGANIZATION ( #119, #7 ) ;
#194 = CC_DESIGN_SECURITY_CLASSIFICATION ( #102, ( #58 ) ) ;
#195 = DIRECTION ( 'NONE',  ( 1.000000000000000000, 0.0000000000000000000, 0.0000000000000000000 ) ) ;
#196 = APPROVAL_DATE_TIME ( #124, #4 ) ;
#197 = CIRCLE ( 'NONE', #169, 1.499999999999992673 ) ;
#198 = FACE_OUTER_BOUND ( 'NONE', #214, .T. ) ;
#199 = AXIS2_PLACEMENT_3D ( 'NONE', #166, #146, #15 ) ;
#200 = APPROVAL ( #132, 'UNSPECIFIED' ) ;
#201 = CARTESIAN_POINT ( 'NONE',  ( 3.555584023412216573E-14, -1.068969423607133147E-15, 10.18359738560230454 ) ) ;
#202 = DIRECTION ( 'NONE',  ( 0.0000000000000000000, 1.000000000000000000, 0.0000000000000000000 ) ) ;
#203 = CLOSED_SHELL ( 'NONE', ( #165, #82, #160, #30, #46 ) ) ;
#204 = DIRECTION ( 'NONE',  ( -3.491481338843133355E-15, 1.049697256412017316E-16, -1.000000000000000000 ) ) ;
#205 = PLANE ( 'NONE',  #84 ) ;
#206 = FACE_OUTER_BOUND ( 'NONE', #91, .T. ) ;
#207 = AXIS2_PLACEMENT_3D ( 'NONE', #16, #73, #223 ) ;
#208 = PLANE ( 'NONE',  #53 ) ;
#209 = APPROVAL_ROLE ( '' ) ;
#210 = APPROVAL_DATE_TIME ( #20, #200 ) ;
#211 = AXIS2_PLACEMENT_3D ( 'NONE', #230, #149, #195 ) ;
#212 = APPROVAL_ROLE ( '' ) ;
#213 = SHAPE_DEFINITION_REPRESENTATION ( #76, #45 ) ;
#214 = EDGE_LOOP ( 'NONE', ( #110 ) ) ;
#215 = FACE_OUTER_BOUND ( 'NONE', #139, .T. ) ;
#216 = AXIS2_PLACEMENT_3D ( 'NONE', #17, #239, #111 ) ;
#217 = APPROVAL_DATE_TIME ( #177, #225 ) ;
#218 = CARTESIAN_POINT ( 'NONE',  ( 3.717437139681374604E-30, 6.354953267417371096E-31, 1.064716313481173900E-15 ) ) ;
#219 = APPLICATION_CONTEXT ( 'configuration controlled 3d designs of mechanical parts and assemblies' ) ;
#220 = CIRCLE ( 'NONE', #93, 1.874662432702592474 ) ;
#221 = APPROVAL_PERSON_ORGANIZATION ( #65, #225, #12 ) ;
#222 = CC_DESIGN_APPROVAL ( #200, ( #58 ) ) ;
#223 = DIRECTION ( 'NONE',  ( 2.083954238463940997E-30, -1.000000000000000000, 5.968682161579125188E-16 ) ) ;
#224 = CARTESIAN_POINT ( 'NONE',  ( 3.555584023412216573E-14, 2.018999999999998796, 10.18359738560230454 ) ) ;
#225 = APPROVAL ( #67, 'UNSPECIFIED' ) ;
#226 = FACE_OUTER_BOUND ( 'NONE', #27, .T. ) ;
#227 =( NAMED_UNIT ( * ) SI_UNIT ( $, .STERADIAN. ) SOLID_ANGLE_UNIT ( ) );
#228 = PERSON_AND_ORGANIZATION ( #119, #7 ) ;
#229 = PERSON_AND_ORGANIZATION ( #119, #7 ) ;
#230 = CARTESIAN_POINT ( 'NONE',  ( 0.0000000000000000000, 0.0000000000000000000, 0.0000000000000000000 ) ) ;
#231 = CONICAL_SURFACE ( 'NONE', #109, 2.018999999999999684, 0.5235987755982928205 ) ;
#232 = ORIENTED_EDGE ( 'NONE', *, *, #87, .T. ) ;
#233 = EDGE_CURVE ( 'NONE', #59, #59, #36, .T. ) ;
#234 = EDGE_LOOP ( 'NONE', ( #179 ) ) ;
#235 = EDGE_LOOP ( 'NONE', ( #11 ) ) ;
#236 = AXIS2_PLACEMENT_3D ( 'NONE', #127, #204, #240 ) ;
#237 = PLANE ( 'NONE',  #207 ) ;
#238 = CC_DESIGN_PERSON_AND_ORGANIZATION_ASSIGNMENT ( #229, #9, ( #102 ) ) ;
#239 = DIRECTION ( 'NONE',  ( -3.491481338843133355E-15, -5.968682161579125188E-16, -1.000000000000000000 ) ) ;
#240 = DIRECTION ( 'NONE',  ( 0.0000000000000000000, 1.000000000000000000, 0.0000000000000000000 ) ) ;
#241 = DIRECTION ( 'NONE',  ( -3.664998382197393967E-31, -1.000000000000000000, -1.049697256412017316E-16 ) ) ;
#242 = PRODUCT_DEFINITION ( 'UNKNOWN', '', #58, #140 ) ;
#243 = CARTESIAN_POINT ( 'NONE',  ( 3.555584023412217204E-14, 6.078265605614829574E-15, 10.18359738560230632 ) ) ;
ENDSEC;
END-ISO-10303-21;
