ISO-10303-21;
HEADER;
FILE_DESCRIPTION (( 'STEP AP203' ),
    '1' );
FILE_NAME ('321306.step',
    '2021-11-26T13:02:22',
    ( '' ),
    ( '' ),
    'SwSTEP 2.0',
    'SolidWorks 2019',
    '' );
FILE_SCHEMA (( 'CONFIG_CONTROL_DESIGN' ));
ENDSEC;

DATA;
#1 = AXIS2_PLACEMENT_3D ( 'NONE', #157, #137, #133 ) ;
#2 = DIRECTION ( 'NONE',  ( -3.491481338843133355E-15, -5.961529496179322750E-16, -1.000000000000000000 ) ) ;
#3 = CARTESIAN_POINT ( 'NONE',  ( 8.728703347107875789E-16, 1.490382374044837836E-16, 0.2500000000000012212 ) ) ;
#4 = CC_DESIGN_APPROVAL ( #131, ( #24 ) ) ;
#5 = CYLINDRICAL_SURFACE ( 'NONE', #202, 1.499999999999995337 ) ;
#6 = FACE_BOUND ( 'NONE', #163, .T. ) ;
#7 = EDGE_LOOP ( 'NONE', ( #125 ) ) ;
#8 = PERSON_AND_ORGANIZATION ( #240, #231 ) ;
#9 = LOCAL_TIME ( 14, 2, 22.00000000000000000, #76 ) ;
#10 = EDGE_LOOP ( 'NONE', ( #199 ) ) ;
#11 = DIRECTION ( 'NONE',  ( 0.0000000000000000000, 1.000000000000000000, 0.0000000000000000000 ) ) ;
#12 =( NAMED_UNIT ( * ) PLANE_ANGLE_UNIT ( ) SI_UNIT ( $, .RADIAN. ) );
#13 = CARTESIAN_POINT ( 'NONE',  ( 3.869445280877825183E-14, 1.499999999999991562, 11.08253175473057617 ) ) ;
#14 = CARTESIAN_POINT ( 'NONE',  ( 8.728703347107833388E-16, 2.013999999999998458, 0.2500000000000000000 ) ) ;
#15 = AXIS2_PLACEMENT_3D ( 'NONE', #42, #179, #153 ) ;
#16 = FACE_OUTER_BOUND ( 'NONE', #87, .T. ) ;
#17 = PERSON_AND_ORGANIZATION_ROLE ( 'creator' ) ;
#18 = EDGE_CURVE ( 'NONE', #198, #198, #151, .T. ) ;
#19 = PERSON_AND_ORGANIZATION ( #240, #231 ) ;
#20 = COORDINATED_UNIVERSAL_TIME_OFFSET ( 1, 0, .AHEAD. ) ;
#21 = PRODUCT_DEFINITION_SHAPE ( 'NONE', 'NONE',  #221 ) ;
#22 = FACE_OUTER_BOUND ( 'NONE', #234, .T. ) ;
#23 = CONICAL_SURFACE ( 'NONE', #212, 1.869662432702592358, 0.5235987755982977054 ) ;
#24 = PRODUCT_DEFINITION_FORMATION_WITH_SPECIFIED_SOURCE ( 'ANY', '', #80, .NOT_KNOWN. ) ;
#25 = DIRECTION ( 'NONE',  ( 0.0000000000000000000, 1.000000000000000000, 0.0000000000000000000 ) ) ;
#26 = PLANE ( 'NONE',  #149 ) ;
#27 = CYLINDRICAL_SURFACE ( 'NONE', #48, 2.013999999999995349 ) ;
#28 = CC_DESIGN_APPROVAL ( #175, ( #221 ) ) ;
#29 = CARTESIAN_POINT ( 'NONE',  ( 0.0000000000000000000, 0.0000000000000000000, 0.0000000000000000000 ) ) ;
#30 = EDGE_CURVE ( 'NONE', #127, #127, #140, .T. ) ;
#31 = APPROVAL_DATE_TIME ( #196, #175 ) ;
#32 = EDGE_LOOP ( 'NONE', ( #50 ) ) ;
#33 = FACE_BOUND ( 'NONE', #161, .T. ) ;
#34 = DIRECTION ( 'NONE',  ( -2.081456898687301178E-30, 1.000000000000000000, -5.961529496179322750E-16 ) ) ;
#35 = PERSON_AND_ORGANIZATION_ROLE ( 'design_owner' ) ;
#36 = CARTESIAN_POINT ( 'NONE',  ( 2.433562493173664138E-13, 1.499999999999990230, 69.70000000000001705 ) ) ;
#37 = DIRECTION ( 'NONE',  ( -3.491481338843133355E-15, 1.049697256412017316E-16, -1.000000000000000000 ) ) ;
#38 = PERSON_AND_ORGANIZATION_ROLE ( 'classification_officer' ) ;
#39 = APPROVAL_STATUS ( 'not_yet_approved' ) ;
#40 = LOCAL_TIME ( 14, 2, 22.00000000000000000, #91 ) ;
#41 = CLOSED_SHELL ( 'NONE', ( #154, #228, #46, #70, #139 ) ) ;
#42 = CARTESIAN_POINT ( 'NONE',  ( 3.558607734948494709E-14, 2.013999999999998458, 10.19225763964015030 ) ) ;
#43 = AXIS2_PLACEMENT_3D ( 'NONE', #105, #216, #90 ) ;
#44 = DIRECTION ( 'NONE',  ( -3.491481338843133355E-15, 1.049697256412017316E-16, -1.000000000000000000 ) ) ;
#45 = FACE_OUTER_BOUND ( 'NONE', #211, .T. ) ;
#46 = ADVANCED_FACE ( 'NONE', ( #16, #224 ), #5, .T. ) ;
#47 = APPROVAL_PERSON_ORGANIZATION ( #169, #131, #170 ) ;
#48 = AXIS2_PLACEMENT_3D ( 'NONE', #29, #194, #84 ) ;
#49 = CALENDAR_DATE ( 2021, 26, 11 ) ;
#50 = ORIENTED_EDGE ( 'NONE', *, *, #148, .F. ) ;
#51 = ORIENTED_EDGE ( 'NONE', *, *, #63, .T. ) ;
#52 = FACE_OUTER_BOUND ( 'NONE', #7, .T. ) ;
#53 = EDGE_LOOP ( 'NONE', ( #159 ) ) ;
#54 = APPLICATION_PROTOCOL_DEFINITION ( 'international standard', 'config_control_design', 1994, #206 ) ;
#55 = PLANE ( 'NONE',  #67 ) ;
#56 = DIRECTION ( 'NONE',  ( 0.0000000000000000000, 1.000000000000000000, 0.0000000000000000000 ) ) ;
#57 = EDGE_CURVE ( 'NONE', #181, #181, #123, .T. ) ;
#58 = PERSON_AND_ORGANIZATION ( #240, #231 ) ;
#59 = LOCAL_TIME ( 14, 2, 22.00000000000000000, #238 ) ;
#60 = UNCERTAINTY_MEASURE_WITH_UNIT (LENGTH_MEASURE( 1.000000000000000082E-05 ), #235, 'distance_accuracy_value', 'NONE');
#61 = PERSON_AND_ORGANIZATION ( #240, #231 ) ;
#62 = CARTESIAN_POINT ( 'NONE',  ( 2.444036937190193601E-13, -7.347880794884121511E-15, 70.00000000000000000 ) ) ;
#63 = EDGE_CURVE ( 'NONE', #162, #162, #166, .T. ) ;
#64 = ADVANCED_BREP_SHAPE_REPRESENTATION ( '321306', ( #69, #73, #43 ), #155 ) ;
#65 = DIRECTION ( 'NONE',  ( -2.081456898687301178E-30, 1.000000000000000000, -5.961529496179322750E-16 ) ) ;
#66 = AXIS2_PLACEMENT_3D ( 'NONE', #3, #229, #156 ) ;
#67 = AXIS2_PLACEMENT_3D ( 'NONE', #71, #88, #34 ) ;
#68 = ORIENTED_EDGE ( 'NONE', *, *, #215, .T. ) ;
#69 = MANIFOLD_SOLID_BREP ( 'Corps-Déplacer/Copier1[1]', #41 ) ;
#70 = ADVANCED_FACE ( 'NONE', ( #6, #22 ), #187, .T. ) ;
#71 = CARTESIAN_POINT ( 'NONE',  ( -2.040447675701804394E-30, 1.869662432702592358, -5.844074413348822534E-16 ) ) ;
#72 = CC_DESIGN_SECURITY_CLASSIFICATION ( #193, ( #24 ) ) ;
#73 = MANIFOLD_SOLID_BREP ( 'Corps-Déplacer/Copier1[2]', #210 ) ;
#74 = CALENDAR_DATE ( 2021, 26, 11 ) ;
#75 = PERSON_AND_ORGANIZATION_ROLE ( 'design_supplier' ) ;
#76 = COORDINATED_UNIVERSAL_TIME_OFFSET ( 1, 0, .AHEAD. ) ;
#77 = CIRCLE ( 'NONE', #110, 1.869662432702592358 ) ;
#78 = CC_DESIGN_PERSON_AND_ORGANIZATION_ASSIGNMENT ( #61, #114, ( #24 ) ) ;
#79 = DIRECTION ( 'NONE',  ( -3.060067438946960409E-30, 1.000000000000000000, -8.613324111106324324E-16 ) ) ;
#80 = PRODUCT ( '321306', '321306', '', ( #128 ) ) ;
#81 = LOCAL_TIME ( 14, 2, 22.00000000000000000, #20 ) ;
#82 = PLANE ( 'NONE',  #15 ) ;
#83 = CC_DESIGN_PERSON_AND_ORGANIZATION_ASSIGNMENT ( #8, #17, ( #221 ) ) ;
#84 = DIRECTION ( 'NONE',  ( -2.081456898687301528E-30, 1.000000000000000000, -5.961529496179322750E-16 ) ) ;
#85 = ORIENTED_EDGE ( 'NONE', *, *, #18, .F. ) ;
#86 = DIRECTION ( 'NONE',  ( 2.081456898687301178E-30, -1.000000000000000000, 5.961529496179322750E-16 ) ) ;
#87 = EDGE_LOOP ( 'NONE', ( #217 ) ) ;
#88 = DIRECTION ( 'NONE',  ( -3.491481338843133355E-15, -5.961529496179322750E-16, -1.000000000000000000 ) ) ;
#89 = CC_DESIGN_PERSON_AND_ORGANIZATION_ASSIGNMENT ( #241, #75, ( #24 ) ) ;
#90 = DIRECTION ( 'NONE',  ( 1.000000000000000000, 0.0000000000000000000, 0.0000000000000000000 ) ) ;
#91 = COORDINATED_UNIVERSAL_TIME_OFFSET ( 1, 0, .AHEAD. ) ;
#92 = DATE_AND_TIME ( #203, #81 ) ;
#93 = APPROVAL_STATUS ( 'not_yet_approved' ) ;
#94 = DATE_AND_TIME ( #74, #9 ) ;
#95 = CC_DESIGN_DATE_AND_TIME_ASSIGNMENT ( #147, #220, ( #221 ) ) ;
#96 = CARTESIAN_POINT ( 'NONE',  ( 3.702348186126976560E-30, 6.321574075499771288E-31, 1.060394665421214063E-15 ) ) ;
#97 = CARTESIAN_POINT ( 'NONE',  ( 3.558607734948494709E-14, 6.076144455137378697E-15, 10.19225763964015030 ) ) ;
#98 = DIRECTION ( 'NONE',  ( 3.491481338843133355E-15, 5.961529496179322750E-16, 1.000000000000000000 ) ) ;
#99 = AXIS2_PLACEMENT_3D ( 'NONE', #200, #239, #167 ) ;
#100 = DIRECTION ( 'NONE',  ( -3.491481338843133355E-15, 1.049697256412017316E-16, -1.000000000000000000 ) ) ;
#101 = CARTESIAN_POINT ( 'NONE',  ( -1.892735826383161356E-31, 1.869662432702592358, -5.421010862427522170E-17 ) ) ;
#102 = ORIENTED_EDGE ( 'NONE', *, *, #63, .F. ) ;
#103 = ADVANCED_FACE ( 'NONE', ( #227, #122 ), #27, .T. ) ;
#104 = AXIS2_PLACEMENT_3D ( 'NONE', #121, #2, #79 ) ;
#105 = CARTESIAN_POINT ( 'NONE',  ( 0.0000000000000000000, 0.0000000000000000000, 0.0000000000000000000 ) ) ;
#106 = EDGE_LOOP ( 'NONE', ( #144 ) ) ;
#107 = PERSON_AND_ORGANIZATION ( #240, #231 ) ;
#108 = EDGE_LOOP ( 'NONE', ( #51 ) ) ;
#109 = APPLICATION_PROTOCOL_DEFINITION ( 'international standard', 'config_control_design', 1994, #138 ) ;
#110 = AXIS2_PLACEMENT_3D ( 'NONE', #230, #136, #65 ) ;
#111 = APPROVAL_PERSON_ORGANIZATION ( #107, #175, #145 ) ;
#112 = EDGE_LOOP ( 'NONE', ( #85 ) ) ;
#113 = DATE_AND_TIME ( #130, #59 ) ;
#114 = PERSON_AND_ORGANIZATION_ROLE ( 'creator' ) ;
#115 = DESIGN_CONTEXT ( 'detailed design', #138, 'design' ) ;
#116 = APPROVAL_DATE_TIME ( #113, #131 ) ;
#117 = AXIS2_PLACEMENT_3D ( 'NONE', #214, #185, #11 ) ;
#118 = DIRECTION ( 'NONE',  ( 0.0000000000000000000, 1.000000000000000000, 0.0000000000000000000 ) ) ;
#119 = FACE_OUTER_BOUND ( 'NONE', #219, .T. ) ;
#120 = CC_DESIGN_DATE_AND_TIME_ASSIGNMENT ( #92, #150, ( #193 ) ) ;
#121 = CARTESIAN_POINT ( 'NONE',  ( 3.558607734948495340E-14, 6.076144455137380275E-15, 10.19225763964015208 ) ) ;
#122 = FACE_OUTER_BOUND ( 'NONE', #53, .T. ) ;
#123 = CIRCLE ( 'NONE', #66, 2.013999999999998458 ) ;
#124 = CARTESIAN_POINT ( 'NONE',  ( 2.444036937190193601E-13, 1.199999999999990186, 70.00000000000000000 ) ) ;
#125 = ORIENTED_EDGE ( 'NONE', *, *, #148, .T. ) ;
#126 = VERTEX_POINT ( 'NONE', #101 ) ;
#127 = VERTEX_POINT ( 'NONE', #36 ) ;
#128 = MECHANICAL_CONTEXT ( 'NONE', #206, 'mechanical' ) ;
#129 = ORIENTED_EDGE ( 'NONE', *, *, #209, .F. ) ;
#130 = CALENDAR_DATE ( 2021, 26, 11 ) ;
#131 = APPROVAL ( #39, 'UNSPECIFIED' ) ;
#132 = AXIS2_PLACEMENT_3D ( 'NONE', #146, #37, #56 ) ;
#133 = DIRECTION ( 'NONE',  ( -3.664998382197393967E-31, -1.000000000000000000, -1.049697256412017316E-16 ) ) ;
#134 = DIRECTION ( 'NONE',  ( 0.0000000000000000000, 1.000000000000000000, 0.0000000000000000000 ) ) ;
#135 = AXIS2_PLACEMENT_3D ( 'NONE', #62, #207, #134 ) ;
#136 = DIRECTION ( 'NONE',  ( -3.491481338843133355E-15, -5.961529496179322750E-16, -1.000000000000000000 ) ) ;
#137 = DIRECTION ( 'NONE',  ( 3.491481338843133355E-15, -1.049697256412017316E-16, 1.000000000000000000 ) ) ;
#138 = APPLICATION_CONTEXT ( 'configuration controlled 3d designs of mechanical parts and assemblies' ) ;
#139 = ADVANCED_FACE ( 'NONE', ( #176 ), #82, .T. ) ;
#140 = CIRCLE ( 'NONE', #132, 1.499999999999997558 ) ;
#141 = VERTEX_POINT ( 'NONE', #124 ) ;
#142 = ORIENTED_EDGE ( 'NONE', *, *, #18, .T. ) ;
#143 = CONICAL_SURFACE ( 'NONE', #117, 1.499999999999997558, 0.7853981633974573828 ) ;
#144 = ORIENTED_EDGE ( 'NONE', *, *, #30, .F. ) ;
#145 = APPROVAL_ROLE ( '' ) ;
#146 = CARTESIAN_POINT ( 'NONE',  ( 2.433562493173664138E-13, -7.316389877191761450E-15, 69.70000000000001705 ) ) ;
#147 = DATE_AND_TIME ( #190, #226 ) ;
#148 = EDGE_CURVE ( 'NONE', #126, #126, #77, .T. ) ;
#149 = AXIS2_PLACEMENT_3D ( 'NONE', #97, #208, #86 ) ;
#150 = DATE_TIME_ROLE ( 'classification_date' ) ;
#151 = CIRCLE ( 'NONE', #99, 1.499999999999992673 ) ;
#152 = PLANE ( 'NONE',  #1 ) ;
#153 = DIRECTION ( 'NONE',  ( 3.664998382197393967E-31, 1.000000000000000000, 1.049697256412017316E-16 ) ) ;
#154 = ADVANCED_FACE ( 'NONE', ( #45 ), #152, .T. ) ;
#155 =( GEOMETRIC_REPRESENTATION_CONTEXT ( 3 ) GLOBAL_UNCERTAINTY_ASSIGNED_CONTEXT ( ( #60 ) ) GLOBAL_UNIT_ASSIGNED_CONTEXT ( ( #235, #12, #232 ) ) REPRESENTATION_CONTEXT ( 'NONE', 'WORKASPACE' ) );
#156 = DIRECTION ( 'NONE',  ( -2.103796364276029019E-30, 1.000000000000000000, -5.921660326385580347E-16 ) ) ;
#157 = CARTESIAN_POINT ( 'NONE',  ( 2.444036937190193601E-13, -7.347880794884121511E-15, 70.00000000000000000 ) ) ;
#158 = ADVANCED_FACE ( 'NONE', ( #204, #192 ), #23, .T. ) ;
#159 = ORIENTED_EDGE ( 'NONE', *, *, #57, .F. ) ;
#160 = CARTESIAN_POINT ( 'NONE',  ( 3.558607734948494709E-14, 2.013999999999998458, 10.19225763964015030 ) ) ;
#161 = EDGE_LOOP ( 'NONE', ( #68 ) ) ;
#162 = VERTEX_POINT ( 'NONE', #183 ) ;
#163 = EDGE_LOOP ( 'NONE', ( #142 ) ) ;
#164 = PERSON_AND_ORGANIZATION ( #240, #231 ) ;
#165 = CC_DESIGN_APPROVAL ( #173, ( #193 ) ) ;
#166 = CIRCLE ( 'NONE', #186, 2.013999999999999346 ) ;
#167 = DIRECTION ( 'NONE',  ( 0.0000000000000000000, 1.000000000000000000, 0.0000000000000000000 ) ) ;
#168 = SHAPE_DEFINITION_REPRESENTATION ( #21, #64 ) ;
#169 = PERSON_AND_ORGANIZATION ( #240, #231 ) ;
#170 = APPROVAL_ROLE ( '' ) ;
#171 = PRODUCT_RELATED_PRODUCT_CATEGORY ( 'detail', '', ( #80 ) ) ;
#172 = CC_DESIGN_PERSON_AND_ORGANIZATION_ASSIGNMENT ( #164, #35, ( #80 ) ) ;
#173 = APPROVAL ( #93, 'UNSPECIFIED' ) ;
#174 = DIRECTION ( 'NONE',  ( 2.081456898687301528E-30, -1.000000000000000000, 5.961529496179322750E-16 ) ) ;
#175 = APPROVAL ( #237, 'UNSPECIFIED' ) ;
#176 = FACE_OUTER_BOUND ( 'NONE', #108, .T. ) ;
#177 = CARTESIAN_POINT ( 'NONE',  ( 0.0000000000000000000, 0.0000000000000000000, 0.0000000000000000000 ) ) ;
#178 = APPROVAL_PERSON_ORGANIZATION ( #19, #173, #188 ) ;
#179 = DIRECTION ( 'NONE',  ( -3.491481338843133355E-15, 1.049697256412017316E-16, -1.000000000000000000 ) ) ;
#180 = CARTESIAN_POINT ( 'NONE',  ( 3.558607734948494709E-14, -1.069878488097468674E-15, 10.19225763964015030 ) ) ;
#181 = VERTEX_POINT ( 'NONE', #14 ) ;
#182 = FACE_OUTER_BOUND ( 'NONE', #106, .T. ) ;
#183 = CARTESIAN_POINT ( 'NONE',  ( 3.558607734948494709E-14, 2.013999999999998458, 10.19225763964015030 ) ) ;
#184 = CC_DESIGN_PERSON_AND_ORGANIZATION_ASSIGNMENT ( #58, #38, ( #193 ) ) ;
#185 = DIRECTION ( 'NONE',  ( -3.491481338843133355E-15, 1.049697256412017316E-16, -1.000000000000000000 ) ) ;
#186 = AXIS2_PLACEMENT_3D ( 'NONE', #180, #195, #118 ) ;
#187 = CONICAL_SURFACE ( 'NONE', #222, 2.013999999999999346, 0.5235987755982929315 ) ;
#188 = APPROVAL_ROLE ( '' ) ;
#189 = APPROVAL_DATE_TIME ( #94, #173 ) ;
#190 = CALENDAR_DATE ( 2021, 26, 11 ) ;
#191 = SECURITY_CLASSIFICATION_LEVEL ( 'unclassified' ) ;
#192 = FACE_BOUND ( 'NONE', #32, .T. ) ;
#193 = SECURITY_CLASSIFICATION ( '', '', #191 ) ;
#194 = DIRECTION ( 'NONE',  ( -3.491481338843133355E-15, -5.961529496179322750E-16, -1.000000000000000000 ) ) ;
#195 = DIRECTION ( 'NONE',  ( -3.491481338843133355E-15, 1.049697256412017316E-16, -1.000000000000000000 ) ) ;
#196 = DATE_AND_TIME ( #49, #40 ) ;
#197 = ORIENTED_EDGE ( 'NONE', *, *, #215, .F. ) ;
#198 = VERTEX_POINT ( 'NONE', #13 ) ;
#199 = ORIENTED_EDGE ( 'NONE', *, *, #209, .T. ) ;
#200 = CARTESIAN_POINT ( 'NONE',  ( 3.869445280877825183E-14, -1.163330317703974635E-15, 11.08253175473057617 ) ) ;
#201 = CIRCLE ( 'NONE', #104, 2.013999999999992241 ) ;
#202 = AXIS2_PLACEMENT_3D ( 'NONE', #177, #100, #225 ) ;
#203 = CALENDAR_DATE ( 2021, 26, 11 ) ;
#204 = FACE_OUTER_BOUND ( 'NONE', #236, .T. ) ;
#205 = CARTESIAN_POINT ( 'NONE',  ( 3.558607734948494709E-14, -1.069878488097468674E-15, 10.19225763964015030 ) ) ;
#206 = APPLICATION_CONTEXT ( 'configuration controlled 3d designs of mechanical parts and assemblies' ) ;
#207 = DIRECTION ( 'NONE',  ( -3.491481338843133355E-15, 1.049697256412017316E-16, -1.000000000000000000 ) ) ;
#208 = DIRECTION ( 'NONE',  ( 3.491481338843133355E-15, 5.961529496179322750E-16, 1.000000000000000000 ) ) ;
#209 = EDGE_CURVE ( 'NONE', #218, #218, #201, .T. ) ;
#210 = CLOSED_SHELL ( 'NONE', ( #223, #103, #158, #233 ) ) ;
#211 = EDGE_LOOP ( 'NONE', ( #197 ) ) ;
#212 = AXIS2_PLACEMENT_3D ( 'NONE', #96, #98, #174 ) ;
#213 = ORIENTED_EDGE ( 'NONE', *, *, #57, .T. ) ;
#214 = CARTESIAN_POINT ( 'NONE',  ( 2.433562493173664138E-13, -7.316389877191761450E-15, 69.70000000000001705 ) ) ;
#215 = EDGE_CURVE ( 'NONE', #141, #141, #242, .T. ) ;
#216 = DIRECTION ( 'NONE',  ( 0.0000000000000000000, 0.0000000000000000000, 1.000000000000000000 ) ) ;
#217 = ORIENTED_EDGE ( 'NONE', *, *, #30, .T. ) ;
#218 = VERTEX_POINT ( 'NONE', #160 ) ;
#219 = EDGE_LOOP ( 'NONE', ( #129 ) ) ;
#220 = DATE_TIME_ROLE ( 'creation_date' ) ;
#221 = PRODUCT_DEFINITION ( 'UNKNOWN', '', #24, #115 ) ;
#222 = AXIS2_PLACEMENT_3D ( 'NONE', #205, #44, #25 ) ;
#223 = ADVANCED_FACE ( 'NONE', ( #119 ), #26, .T. ) ;
#224 = FACE_OUTER_BOUND ( 'NONE', #112, .T. ) ;
#225 = DIRECTION ( 'NONE',  ( 3.664998382197393967E-31, 1.000000000000000000, 1.049697256412017316E-16 ) ) ;
#226 = LOCAL_TIME ( 14, 2, 22.00000000000000000, #243 ) ;
#227 = FACE_OUTER_BOUND ( 'NONE', #10, .T. ) ;
#228 = ADVANCED_FACE ( 'NONE', ( #33, #182 ), #143, .T. ) ;
#229 = DIRECTION ( 'NONE',  ( -3.491481338843133355E-15, -5.961529496179322750E-16, -1.000000000000000000 ) ) ;
#230 = CARTESIAN_POINT ( 'NONE',  ( 3.702348186126976560E-30, 6.321574075499771288E-31, 1.060394665421214063E-15 ) ) ;
#231 = ORGANIZATION ( 'UNSPECIFIED', 'UNSPECIFIED', '' ) ;
#232 =( NAMED_UNIT ( * ) SI_UNIT ( $, .STERADIAN. ) SOLID_ANGLE_UNIT ( ) );
#233 = ADVANCED_FACE ( 'NONE', ( #52 ), #55, .T. ) ;
#234 = EDGE_LOOP ( 'NONE', ( #102 ) ) ;
#235 =( LENGTH_UNIT ( ) NAMED_UNIT ( * ) SI_UNIT ( .MILLI., .METRE. ) );
#236 = EDGE_LOOP ( 'NONE', ( #213 ) ) ;
#237 = APPROVAL_STATUS ( 'not_yet_approved' ) ;
#238 = COORDINATED_UNIVERSAL_TIME_OFFSET ( 1, 0, .AHEAD. ) ;
#239 = DIRECTION ( 'NONE',  ( -3.491481338843133355E-15, 1.049697256412017316E-16, -1.000000000000000000 ) ) ;
#240 = PERSON ( 'UNSPECIFIED', 'UNSPECIFIED', 'UNSPECIFIED', ('UNSPECIFIED'), ('UNSPECIFIED'), ('UNSPECIFIED') ) ;
#241 = PERSON_AND_ORGANIZATION ( #240, #231 ) ;
#242 = CIRCLE ( 'NONE', #135, 1.199999999999997513 ) ;
#243 = COORDINATED_UNIVERSAL_TIME_OFFSET ( 1, 0, .AHEAD. ) ;
ENDSEC;
END-ISO-10303-21;
