ISO-10303-21;
HEADER;
FILE_DESCRIPTION (( 'STEP AP203' ),
    '1' );
FILE_NAME ('321305.step',
    '2021-11-26T13:02:21',
    ( '' ),
    ( '' ),
    'SwSTEP 2.0',
    'SolidWorks 2019',
    '' );
FILE_SCHEMA (( 'CONFIG_CONTROL_DESIGN' ));
ENDSEC;

DATA;
#1 = CARTESIAN_POINT ( 'NONE',  ( 8.728703347107875789E-16, 1.488597243887318175E-16, 0.2500000000000012212 ) ) ;
#2 = CALENDAR_DATE ( 2021, 26, 11 ) ;
#3 = PERSON_AND_ORGANIZATION_ROLE ( 'design_owner' ) ;
#4 = APPROVAL_DATE_TIME ( #105, #155 ) ;
#5 = LOCAL_TIME ( 14, 2, 21.00000000000000000, #79 ) ;
#6 = LOCAL_TIME ( 14, 2, 21.00000000000000000, #209 ) ;
#7 = DIRECTION ( 'NONE',  ( -3.491481338843133355E-15, 1.049697256412017316E-16, -1.000000000000000000 ) ) ;
#8 = DIRECTION ( 'NONE',  ( 0.0000000000000000000, 1.000000000000000000, 0.0000000000000000000 ) ) ;
#9 = EDGE_LOOP ( 'NONE', ( #216 ) ) ;
#10 = AXIS2_PLACEMENT_3D ( 'NONE', #86, #29, #27 ) ;
#11 = EDGE_CURVE ( 'NONE', #240, #240, #93, .T. ) ;
#12 = DIRECTION ( 'NONE',  ( -3.491481338843133355E-15, -5.954388975549244104E-16, -1.000000000000000000 ) ) ;
#13 = EDGE_LOOP ( 'NONE', ( #233 ) ) ;
#14 =( NAMED_UNIT ( * ) PLANE_ANGLE_UNIT ( ) SI_UNIT ( $, .RADIAN. ) );
#15 = DESIGN_CONTEXT ( 'detailed design', #165, 'design' ) ;
#16 = DIRECTION ( 'NONE',  ( -3.491481338843133355E-15, 1.049697256412017316E-16, -1.000000000000000000 ) ) ;
#17 =( NAMED_UNIT ( * ) SI_UNIT ( $, .STERADIAN. ) SOLID_ANGLE_UNIT ( ) );
#18 = ADVANCED_FACE ( 'NONE', ( #110 ), #183, .T. ) ;
#19 = AXIS2_PLACEMENT_3D ( 'NONE', #196, #150, #44 ) ;
#20 = DIRECTION ( 'NONE',  ( -3.664998382197393967E-31, -1.000000000000000000, -1.049697256412017316E-16 ) ) ;
#21 = PERSON_AND_ORGANIZATION_ROLE ( 'creator' ) ;
#22 = PERSON_AND_ORGANIZATION ( #28, #178 ) ;
#23 = APPROVAL_PERSON_ORGANIZATION ( #43, #155, #24 ) ;
#24 = APPROVAL_ROLE ( '' ) ;
#25 = COORDINATED_UNIVERSAL_TIME_OFFSET ( 1, 0, .AHEAD. ) ;
#26 = SECURITY_CLASSIFICATION ( '', '', #61 ) ;
#27 = DIRECTION ( 'NONE',  ( -2.078963799234346888E-30, 1.000000000000000000, -5.954388975549244104E-16 ) ) ;
#28 = PERSON ( 'UNSPECIFIED', 'UNSPECIFIED', 'UNSPECIFIED', ('UNSPECIFIED'), ('UNSPECIFIED'), ('UNSPECIFIED') ) ;
#29 = DIRECTION ( 'NONE',  ( -3.491481338843133355E-15, -5.954388975549244104E-16, -1.000000000000000000 ) ) ;
#30 = EDGE_CURVE ( 'NONE', #207, #207, #185, .T. ) ;
#31 = DIRECTION ( 'NONE',  ( 0.0000000000000000000, 1.000000000000000000, 0.0000000000000000000 ) ) ;
#32 = EDGE_LOOP ( 'NONE', ( #140 ) ) ;
#33 = AXIS2_PLACEMENT_3D ( 'NONE', #221, #112, #238 ) ;
#34 = CARTESIAN_POINT ( 'NONE',  ( 2.444036937190193601E-13, -7.347880794884121511E-15, 70.00000000000000000 ) ) ;
#35 = CC_DESIGN_DATE_AND_TIME_ASSIGNMENT ( #80, #153, ( #26 ) ) ;
#36 = DIRECTION ( 'NONE',  ( 0.0000000000000000000, 1.000000000000000000, 0.0000000000000000000 ) ) ;
#37 = FACE_BOUND ( 'NONE', #92, .T. ) ;
#38 = AXIS2_PLACEMENT_3D ( 'NONE', #68, #138, #202 ) ;
#39 = CARTESIAN_POINT ( 'NONE',  ( 2.433562493173664138E-13, -7.316389877191761450E-15, 69.70000000000001705 ) ) ;
#40 = ADVANCED_FACE ( 'NONE', ( #123 ), #108, .T. ) ;
#41 = DIRECTION ( 'NONE',  ( 0.0000000000000000000, 1.000000000000000000, 0.0000000000000000000 ) ) ;
#42 = EDGE_CURVE ( 'NONE', #58, #58, #213, .T. ) ;
#43 = PERSON_AND_ORGANIZATION ( #28, #178 ) ;
#44 = DIRECTION ( 'NONE',  ( 1.000000000000000000, 0.0000000000000000000, 0.0000000000000000000 ) ) ;
#45 = AXIS2_PLACEMENT_3D ( 'NONE', #90, #181, #111 ) ;
#46 = ORIENTED_EDGE ( 'NONE', *, *, #42, .F. ) ;
#47 = ADVANCED_FACE ( 'NONE', ( #201 ), #89, .T. ) ;
#48 = CARTESIAN_POINT ( 'NONE',  ( -2.032919639009628746E-30, 1.864662432702592465, -5.822513259323951358E-16 ) ) ;
#49 = EDGE_LOOP ( 'NONE', ( #122 ) ) ;
#50 = ORIENTED_EDGE ( 'NONE', *, *, #211, .F. ) ;
#51 = APPROVAL_PERSON_ORGANIZATION ( #60, #167, #62 ) ;
#52 = ORIENTED_EDGE ( 'NONE', *, *, #57, .T. ) ;
#53 = ADVANCED_FACE ( 'NONE', ( #217, #184 ), #236, .T. ) ;
#54 = FACE_OUTER_BOUND ( 'NONE', #215, .T. ) ;
#55 = DIRECTION ( 'NONE',  ( -3.491481338843133355E-15, 1.049697256412017316E-16, -1.000000000000000000 ) ) ;
#56 = AXIS2_PLACEMENT_3D ( 'NONE', #242, #223, #77 ) ;
#57 = EDGE_CURVE ( 'NONE', #222, #222, #226, .T. ) ;
#58 = VERTEX_POINT ( 'NONE', #75 ) ;
#59 =( LENGTH_UNIT ( ) NAMED_UNIT ( * ) SI_UNIT ( .MILLI., .METRE. ) );
#60 = PERSON_AND_ORGANIZATION ( #28, #178 ) ;
#61 = SECURITY_CLASSIFICATION_LEVEL ( 'unclassified' ) ;
#62 = APPROVAL_ROLE ( '' ) ;
#63 = ORIENTED_EDGE ( 'NONE', *, *, #243, .T. ) ;
#64 = APPROVAL_DATE_TIME ( #172, #98 ) ;
#65 = CARTESIAN_POINT ( 'NONE',  ( 3.869445280877825814E-14, -1.163330317703974832E-15, 11.08253175473057794 ) ) ;
#66 = CC_DESIGN_SECURITY_CLASSIFICATION ( #26, ( #142 ) ) ;
#67 = AXIS2_PLACEMENT_3D ( 'NONE', #34, #7, #31 ) ;
#68 = CARTESIAN_POINT ( 'NONE',  ( 3.561631446484772844E-14, 6.074023304659927820E-15, 10.20091789367799606 ) ) ;
#69 = ORIENTED_EDGE ( 'NONE', *, *, #30, .F. ) ;
#70 = PRODUCT_RELATED_PRODUCT_CATEGORY ( 'detail', '', ( #134 ) ) ;
#71 = EDGE_LOOP ( 'NONE', ( #52 ) ) ;
#72 = APPROVAL_PERSON_ORGANIZATION ( #197, #98, #227 ) ;
#73 = FACE_BOUND ( 'NONE', #71, .T. ) ;
#74 = VERTEX_POINT ( 'NONE', #115 ) ;
#75 = CARTESIAN_POINT ( 'NONE',  ( -1.892735826383161356E-31, 1.864662432702592465, -5.421010862427522170E-17 ) ) ;
#76 = CONICAL_SURFACE ( 'NONE', #241, 1.499999999999997558, 0.7853981633974573828 ) ;
#77 = DIRECTION ( 'NONE',  ( 0.0000000000000000000, 1.000000000000000000, 0.0000000000000000000 ) ) ;
#78 = CLOSED_SHELL ( 'NONE', ( #124, #230, #53, #104, #40 ) ) ;
#79 = COORDINATED_UNIVERSAL_TIME_OFFSET ( 1, 0, .AHEAD. ) ;
#80 = DATE_AND_TIME ( #135, #163 ) ;
#81 = MANIFOLD_SOLID_BREP ( 'Corps-Déplacer/Copier1[1]', #78 ) ;
#82 = ADVANCED_FACE ( 'NONE', ( #137, #214 ), #97, .T. ) ;
#83 = SHAPE_DEFINITION_REPRESENTATION ( #103, #159 ) ;
#84 = MANIFOLD_SOLID_BREP ( 'Corps-Déplacer/Copier1[2]', #173 ) ;
#85 = CC_DESIGN_PERSON_AND_ORGANIZATION_ASSIGNMENT ( #99, #210, ( #142 ) ) ;
#86 = CARTESIAN_POINT ( 'NONE',  ( 3.687292112742625264E-30, 6.288325605950144814E-31, 1.056082434616239828E-15 ) ) ;
#87 = ORIENTED_EDGE ( 'NONE', *, *, #243, .F. ) ;
#88 = CONICAL_SURFACE ( 'NONE', #126, 1.864662432702592465, 0.5235987755982975944 ) ;
#89 = PLANE ( 'NONE',  #169 ) ;
#90 = CARTESIAN_POINT ( 'NONE',  ( 3.561631446484772844E-14, 2.008999999999998565, 10.20091789367799606 ) ) ;
#91 = CC_DESIGN_PERSON_AND_ORGANIZATION_ASSIGNMENT ( #22, #102, ( #26 ) ) ;
#92 = EDGE_LOOP ( 'NONE', ( #161 ) ) ;
#93 = CIRCLE ( 'NONE', #38, 2.008999999999992347 ) ;
#94 = APPLICATION_PROTOCOL_DEFINITION ( 'international standard', 'config_control_design', 1994, #186 ) ;
#95 = DIRECTION ( 'NONE',  ( -3.491481338843133355E-15, -5.954388975549244104E-16, -1.000000000000000000 ) ) ;
#96 = DIRECTION ( 'NONE',  ( 3.491481338843133355E-15, -1.049697256412017316E-16, 1.000000000000000000 ) ) ;
#97 = CYLINDRICAL_SURFACE ( 'NONE', #114, 2.008999999999995456 ) ;
#98 = APPROVAL ( #119, 'UNSPECIFIED' ) ;
#99 = PERSON_AND_ORGANIZATION ( #28, #178 ) ;
#100 = CALENDAR_DATE ( 2021, 26, 11 ) ;
#101 = CONICAL_SURFACE ( 'NONE', #56, 2.008999999999999453, 0.5235987755982925984 ) ;
#102 = PERSON_AND_ORGANIZATION_ROLE ( 'classification_officer' ) ;
#103 = PRODUCT_DEFINITION_SHAPE ( 'NONE', 'NONE',  #199 ) ;
#104 = ADVANCED_FACE ( 'NONE', ( #73, #129 ), #101, .T. ) ;
#105 = DATE_AND_TIME ( #100, #160 ) ;
#106 = LOCAL_TIME ( 14, 2, 21.00000000000000000, #132 ) ;
#107 = DIRECTION ( 'NONE',  ( -3.491481338843133355E-15, 1.049697256412017316E-16, -1.000000000000000000 ) ) ;
#108 = PLANE ( 'NONE',  #45 ) ;
#109 = DIRECTION ( 'NONE',  ( 3.664998382197393967E-31, 1.000000000000000000, 1.049697256412017316E-16 ) ) ;
#110 = FACE_OUTER_BOUND ( 'NONE', #219, .T. ) ;
#111 = DIRECTION ( 'NONE',  ( 3.664998382197393967E-31, 1.000000000000000000, 1.049697256412017316E-16 ) ) ;
#112 = DIRECTION ( 'NONE',  ( -3.491481338843133355E-15, 1.049697256412017316E-16, -1.000000000000000000 ) ) ;
#113 = FACE_OUTER_BOUND ( 'NONE', #162, .T. ) ;
#114 = AXIS2_PLACEMENT_3D ( 'NONE', #191, #95, #149 ) ;
#115 = CARTESIAN_POINT ( 'NONE',  ( 3.561631446484772213E-14, 2.008999999999998565, 10.20091789367799429 ) ) ;
#116 = FACE_BOUND ( 'NONE', #175, .T. ) ;
#117 = CIRCLE ( 'NONE', #182, 2.008999999999998565 ) ;
#118 = PERSON_AND_ORGANIZATION ( #28, #178 ) ;
#119 = APPROVAL_STATUS ( 'not_yet_approved' ) ;
#120 = AXIS2_PLACEMENT_3D ( 'NONE', #188, #16, #36 ) ;
#121 = PERSON_AND_ORGANIZATION_ROLE ( 'creator' ) ;
#122 = ORIENTED_EDGE ( 'NONE', *, *, #239, .T. ) ;
#123 = FACE_OUTER_BOUND ( 'NONE', #125, .T. ) ;
#124 = ADVANCED_FACE ( 'NONE', ( #54 ), #220, .T. ) ;
#125 = EDGE_LOOP ( 'NONE', ( #127 ) ) ;
#126 = AXIS2_PLACEMENT_3D ( 'NONE', #168, #147, #171 ) ;
#127 = ORIENTED_EDGE ( 'NONE', *, *, #211, .T. ) ;
#128 = CARTESIAN_POINT ( 'NONE',  ( 2.444036937190193601E-13, -7.347880794884121511E-15, 70.00000000000000000 ) ) ;
#129 = FACE_OUTER_BOUND ( 'NONE', #232, .T. ) ;
#130 = COORDINATED_UNIVERSAL_TIME_OFFSET ( 1, 0, .AHEAD. ) ;
#131 = AXIS2_PLACEMENT_3D ( 'NONE', #144, #107, #109 ) ;
#132 = COORDINATED_UNIVERSAL_TIME_OFFSET ( 1, 0, .AHEAD. ) ;
#133 = DATE_AND_TIME ( #156, #6 ) ;
#134 = PRODUCT ( '321305', '321305', '', ( #152 ) ) ;
#135 = CALENDAR_DATE ( 2021, 26, 11 ) ;
#136 = CIRCLE ( 'NONE', #33, 1.499999999999997558 ) ;
#137 = FACE_OUTER_BOUND ( 'NONE', #231, .T. ) ;
#138 = DIRECTION ( 'NONE',  ( -3.491481338843133355E-15, -5.954388975549244104E-16, -1.000000000000000000 ) ) ;
#139 = CC_DESIGN_PERSON_AND_ORGANIZATION_ASSIGNMENT ( #174, #3, ( #134 ) ) ;
#140 = ORIENTED_EDGE ( 'NONE', *, *, #239, .F. ) ;
#141 = DIRECTION ( 'NONE',  ( 2.078963799234346888E-30, -1.000000000000000000, 5.954388975549244104E-16 ) ) ;
#142 = PRODUCT_DEFINITION_FORMATION_WITH_SPECIFIED_SOURCE ( 'ANY', '', #134, .NOT_KNOWN. ) ;
#143 = CC_DESIGN_APPROVAL ( #167, ( #199 ) ) ;
#144 = CARTESIAN_POINT ( 'NONE',  ( 0.0000000000000000000, 0.0000000000000000000, 0.0000000000000000000 ) ) ;
#145 = UNCERTAINTY_MEASURE_WITH_UNIT (LENGTH_MEASURE( 1.000000000000000082E-05 ), #59, 'distance_accuracy_value', 'NONE');
#146 = CARTESIAN_POINT ( 'NONE',  ( 2.444036937190193601E-13, 1.199999999999990186, 70.00000000000000000 ) ) ;
#147 = DIRECTION ( 'NONE',  ( 3.491481338843133355E-15, 5.954388975549244104E-16, 1.000000000000000000 ) ) ;
#148 = CARTESIAN_POINT ( 'NONE',  ( 3.561631446484772213E-14, 2.008999999999998565, 10.20091789367799429 ) ) ;
#149 = DIRECTION ( 'NONE',  ( -2.078963799234347239E-30, 1.000000000000000000, -5.954388975549244104E-16 ) ) ;
#150 = DIRECTION ( 'NONE',  ( 0.0000000000000000000, 0.0000000000000000000, 1.000000000000000000 ) ) ;
#151 = AXIS2_PLACEMENT_3D ( 'NONE', #65, #179, #8 ) ;
#152 = MECHANICAL_CONTEXT ( 'NONE', #186, 'mechanical' ) ;
#153 = DATE_TIME_ROLE ( 'classification_date' ) ;
#154 = PERSON_AND_ORGANIZATION ( #28, #178 ) ;
#155 = APPROVAL ( #177, 'UNSPECIFIED' ) ;
#156 = CALENDAR_DATE ( 2021, 26, 11 ) ;
#157 = ORIENTED_EDGE ( 'NONE', *, *, #42, .T. ) ;
#158 = ORIENTED_EDGE ( 'NONE', *, *, #11, .T. ) ;
#159 = ADVANCED_BREP_SHAPE_REPRESENTATION ( '321305', ( #81, #84, #19 ), #229 ) ;
#160 = LOCAL_TIME ( 14, 2, 21.00000000000000000, #25 ) ;
#161 = ORIENTED_EDGE ( 'NONE', *, *, #30, .T. ) ;
#162 = EDGE_LOOP ( 'NONE', ( #87 ) ) ;
#163 = LOCAL_TIME ( 14, 2, 21.00000000000000000, #130 ) ;
#164 = CARTESIAN_POINT ( 'NONE',  ( 2.433562493173664138E-13, 1.499999999999990230, 69.70000000000001705 ) ) ;
#165 = APPLICATION_CONTEXT ( 'configuration controlled 3d designs of mechanical parts and assemblies' ) ;
#166 = DIRECTION ( 'NONE',  ( -3.491481338843133355E-15, -5.954388975549244104E-16, -1.000000000000000000 ) ) ;
#167 = APPROVAL ( #194, 'UNSPECIFIED' ) ;
#168 = CARTESIAN_POINT ( 'NONE',  ( 3.687292112742625264E-30, 6.288325605950144814E-31, 1.056082434616239828E-15 ) ) ;
#169 = AXIS2_PLACEMENT_3D ( 'NONE', #180, #235, #141 ) ;
#170 = CC_DESIGN_APPROVAL ( #155, ( #26 ) ) ;
#171 = DIRECTION ( 'NONE',  ( 2.078963799234347239E-30, -1.000000000000000000, 5.954388975549244104E-16 ) ) ;
#172 = DATE_AND_TIME ( #195, #106 ) ;
#173 = CLOSED_SHELL ( 'NONE', ( #47, #82, #189, #18 ) ) ;
#174 = PERSON_AND_ORGANIZATION ( #28, #178 ) ;
#175 = EDGE_LOOP ( 'NONE', ( #46 ) ) ;
#176 = APPROVAL_DATE_TIME ( #133, #167 ) ;
#177 = APPROVAL_STATUS ( 'not_yet_approved' ) ;
#178 = ORGANIZATION ( 'UNSPECIFIED', 'UNSPECIFIED', '' ) ;
#179 = DIRECTION ( 'NONE',  ( -3.491481338843133355E-15, 1.049697256412017316E-16, -1.000000000000000000 ) ) ;
#180 = CARTESIAN_POINT ( 'NONE',  ( 3.561631446484772844E-14, 6.074023304659927031E-15, 10.20091789367799606 ) ) ;
#181 = DIRECTION ( 'NONE',  ( -3.491481338843133355E-15, 1.049697256412017316E-16, -1.000000000000000000 ) ) ;
#182 = AXIS2_PLACEMENT_3D ( 'NONE', #1, #166, #224 ) ;
#183 = PLANE ( 'NONE',  #192 ) ;
#184 = FACE_OUTER_BOUND ( 'NONE', #9, .T. ) ;
#185 = CIRCLE ( 'NONE', #67, 1.199999999999997513 ) ;
#186 = APPLICATION_CONTEXT ( 'configuration controlled 3d designs of mechanical parts and assemblies' ) ;
#187 = CARTESIAN_POINT ( 'NONE',  ( 3.869445280877825814E-14, 1.499999999999991562, 11.08253175473057794 ) ) ;
#188 = CARTESIAN_POINT ( 'NONE',  ( 3.561631446484772213E-14, -1.070787552587804595E-15, 10.20091789367799429 ) ) ;
#189 = ADVANCED_FACE ( 'NONE', ( #205, #116 ), #88, .T. ) ;
#190 = VERTEX_POINT ( 'NONE', #208 ) ;
#191 = CARTESIAN_POINT ( 'NONE',  ( 0.0000000000000000000, 0.0000000000000000000, 0.0000000000000000000 ) ) ;
#192 = AXIS2_PLACEMENT_3D ( 'NONE', #48, #12, #200 ) ;
#193 = CC_DESIGN_PERSON_AND_ORGANIZATION_ASSIGNMENT ( #154, #21, ( #142 ) ) ;
#194 = APPROVAL_STATUS ( 'not_yet_approved' ) ;
#195 = CALENDAR_DATE ( 2021, 26, 11 ) ;
#196 = CARTESIAN_POINT ( 'NONE',  ( 0.0000000000000000000, 0.0000000000000000000, 0.0000000000000000000 ) ) ;
#197 = PERSON_AND_ORGANIZATION ( #28, #178 ) ;
#198 = APPLICATION_PROTOCOL_DEFINITION ( 'international standard', 'config_control_design', 1994, #165 ) ;
#199 = PRODUCT_DEFINITION ( 'UNKNOWN', '', #142, #15 ) ;
#200 = DIRECTION ( 'NONE',  ( -2.078963799234346888E-30, 1.000000000000000000, -5.954388975549244104E-16 ) ) ;
#201 = FACE_OUTER_BOUND ( 'NONE', #13, .T. ) ;
#202 = DIRECTION ( 'NONE',  ( -3.067683336007555188E-30, 1.000000000000000000, -8.634760955583941013E-16 ) ) ;
#203 = EDGE_LOOP ( 'NONE', ( #63 ) ) ;
#204 = VERTEX_POINT ( 'NONE', #164 ) ;
#205 = FACE_OUTER_BOUND ( 'NONE', #49, .T. ) ;
#206 = AXIS2_PLACEMENT_3D ( 'NONE', #128, #96, #20 ) ;
#207 = VERTEX_POINT ( 'NONE', #146 ) ;
#208 = CARTESIAN_POINT ( 'NONE',  ( 8.728703347107833388E-16, 2.008999999999998565, 0.2500000000000000000 ) ) ;
#209 = COORDINATED_UNIVERSAL_TIME_OFFSET ( 1, 0, .AHEAD. ) ;
#210 = PERSON_AND_ORGANIZATION_ROLE ( 'design_supplier' ) ;
#211 = EDGE_CURVE ( 'NONE', #74, #74, #218, .T. ) ;
#212 = DATE_TIME_ROLE ( 'creation_date' ) ;
#213 = CIRCLE ( 'NONE', #10, 1.864662432702592465 ) ;
#214 = FACE_OUTER_BOUND ( 'NONE', #32, .T. ) ;
#215 = EDGE_LOOP ( 'NONE', ( #69 ) ) ;
#216 = ORIENTED_EDGE ( 'NONE', *, *, #57, .F. ) ;
#217 = FACE_OUTER_BOUND ( 'NONE', #203, .T. ) ;
#218 = CIRCLE ( 'NONE', #120, 2.008999999999999453 ) ;
#219 = EDGE_LOOP ( 'NONE', ( #157 ) ) ;
#220 = PLANE ( 'NONE',  #206 ) ;
#221 = CARTESIAN_POINT ( 'NONE',  ( 2.433562493173664138E-13, -7.316389877191761450E-15, 69.70000000000001705 ) ) ;
#222 = VERTEX_POINT ( 'NONE', #187 ) ;
#223 = DIRECTION ( 'NONE',  ( -3.491481338843133355E-15, 1.049697256412017316E-16, -1.000000000000000000 ) ) ;
#224 = DIRECTION ( 'NONE',  ( -2.109032293505187755E-30, 1.000000000000000000, -5.936398156963941327E-16 ) ) ;
#225 = CC_DESIGN_PERSON_AND_ORGANIZATION_ASSIGNMENT ( #118, #121, ( #199 ) ) ;
#226 = CIRCLE ( 'NONE', #151, 1.499999999999992673 ) ;
#227 = APPROVAL_ROLE ( '' ) ;
#228 = DATE_AND_TIME ( #2, #5 ) ;
#229 =( GEOMETRIC_REPRESENTATION_CONTEXT ( 3 ) GLOBAL_UNCERTAINTY_ASSIGNED_CONTEXT ( ( #145 ) ) GLOBAL_UNIT_ASSIGNED_CONTEXT ( ( #59, #14, #17 ) ) REPRESENTATION_CONTEXT ( 'NONE', 'WORKASPACE' ) );
#230 = ADVANCED_FACE ( 'NONE', ( #37, #113 ), #76, .T. ) ;
#231 = EDGE_LOOP ( 'NONE', ( #158 ) ) ;
#232 = EDGE_LOOP ( 'NONE', ( #50 ) ) ;
#233 = ORIENTED_EDGE ( 'NONE', *, *, #11, .F. ) ;
#234 = CC_DESIGN_DATE_AND_TIME_ASSIGNMENT ( #228, #212, ( #199 ) ) ;
#235 = DIRECTION ( 'NONE',  ( 3.491481338843133355E-15, 5.954388975549244104E-16, 1.000000000000000000 ) ) ;
#236 = CYLINDRICAL_SURFACE ( 'NONE', #131, 1.499999999999995337 ) ;
#237 = CC_DESIGN_APPROVAL ( #98, ( #142 ) ) ;
#238 = DIRECTION ( 'NONE',  ( 0.0000000000000000000, 1.000000000000000000, 0.0000000000000000000 ) ) ;
#239 = EDGE_CURVE ( 'NONE', #190, #190, #117, .T. ) ;
#240 = VERTEX_POINT ( 'NONE', #148 ) ;
#241 = AXIS2_PLACEMENT_3D ( 'NONE', #39, #55, #41 ) ;
#242 = CARTESIAN_POINT ( 'NONE',  ( 3.561631446484772213E-14, -1.070787552587804595E-15, 10.20091789367799429 ) ) ;
#243 = EDGE_CURVE ( 'NONE', #204, #204, #136, .T. ) ;
ENDSEC;
END-ISO-10303-21;
