ISO-10303-21;
HEADER;
FILE_DESCRIPTION (( 'STEP AP203' ),
    '1' );
FILE_NAME ('321304.step',
    '2021-11-26T13:02:21',
    ( '' ),
    ( '' ),
    'SwSTEP 2.0',
    'SolidWorks 2019',
    '' );
FILE_SCHEMA (( 'CONFIG_CONTROL_DESIGN' ));
ENDSEC;

DATA;
#1 = APPROVAL_ROLE ( '' ) ;
#2 = PRODUCT_DEFINITION ( 'UNKNOWN', '', #166, #89 ) ;
#3 = PERSON_AND_ORGANIZATION_ROLE ( 'creator' ) ;
#4 = EDGE_LOOP ( 'NONE', ( #212 ) ) ;
#5 = PERSON_AND_ORGANIZATION ( #197, #101 ) ;
#6 = ADVANCED_FACE ( 'NONE', ( #61 ), #153, .T. ) ;
#7 = DIRECTION ( 'NONE',  ( 3.491481338843133355E-15, 5.947260568783572169E-16, 1.000000000000000000 ) ) ;
#8 = DIRECTION ( 'NONE',  ( -3.491481338843133355E-15, -5.947260568783572169E-16, -1.000000000000000000 ) ) ;
#9 = FACE_OUTER_BOUND ( 'NONE', #114, .T. ) ;
#10 = ORIENTED_EDGE ( 'NONE', *, *, #49, .F. ) ;
#11 = FACE_OUTER_BOUND ( 'NONE', #170, .T. ) ;
#12 = CARTESIAN_POINT ( 'NONE',  ( 3.564655158021049086E-14, 2.003999999999998671, 10.20957814771583827 ) ) ;
#13 = CARTESIAN_POINT ( 'NONE',  ( 3.564655158021049717E-14, 6.071902154182483253E-15, 10.20957814771584005 ) ) ;
#14 = ADVANCED_BREP_SHAPE_REPRESENTATION ( '321304', ( #131, #133, #186 ), #36 ) ;
#15 = VERTEX_POINT ( 'NONE', #52 ) ;
#16 = AXIS2_PLACEMENT_3D ( 'NONE', #174, #69, #124 ) ;
#17 = CARTESIAN_POINT ( 'NONE',  ( 3.672268835856713040E-30, 6.255207324894317174E-31, 1.051779597101751044E-15 ) ) ;
#18 = CALENDAR_DATE ( 2021, 26, 11 ) ;
#19 = COORDINATED_UNIVERSAL_TIME_OFFSET ( 1, 0, .AHEAD. ) ;
#20 = AXIS2_PLACEMENT_3D ( 'NONE', #190, #173, #235 ) ;
#21 = PERSON_AND_ORGANIZATION_ROLE ( 'classification_officer' ) ;
#22 = ORIENTED_EDGE ( 'NONE', *, *, #168, .F. ) ;
#23 = APPLICATION_PROTOCOL_DEFINITION ( 'international standard', 'config_control_design', 1994, #115 ) ;
#24 = DIRECTION ( 'NONE',  ( 0.0000000000000000000, 1.000000000000000000, 0.0000000000000000000 ) ) ;
#25 = EDGE_LOOP ( 'NONE', ( #10 ) ) ;
#26 = CC_DESIGN_PERSON_AND_ORGANIZATION_ASSIGNMENT ( #60, #146, ( #166 ) ) ;
#27 = CARTESIAN_POINT ( 'NONE',  ( 3.869445280877825183E-14, -1.163330317703974635E-15, 11.08253175473057617 ) ) ;
#28 = DIRECTION ( 'NONE',  ( 0.0000000000000000000, 1.000000000000000000, 0.0000000000000000000 ) ) ;
#29 = CARTESIAN_POINT ( 'NONE',  ( -2.025408000566672634E-30, 1.859662432702592794, -5.800999071751507437E-16 ) ) ;
#30 = DIRECTION ( 'NONE',  ( -3.491481338843133355E-15, -5.947260568783572169E-16, -1.000000000000000000 ) ) ;
#31 = CIRCLE ( 'NONE', #200, 1.499999999999997558 ) ;
#32 =( NAMED_UNIT ( * ) SI_UNIT ( $, .STERADIAN. ) SOLID_ANGLE_UNIT ( ) );
#33 = CC_DESIGN_DATE_AND_TIME_ASSIGNMENT ( #58, #161, ( #86 ) ) ;
#34 = DIRECTION ( 'NONE',  ( 2.076474929314544308E-30, -1.000000000000000000, 5.947260568783572169E-16 ) ) ;
#35 = FACE_BOUND ( 'NONE', #62, .T. ) ;
#36 =( GEOMETRIC_REPRESENTATION_CONTEXT ( 3 ) GLOBAL_UNCERTAINTY_ASSIGNED_CONTEXT ( ( #176 ) ) GLOBAL_UNIT_ASSIGNED_CONTEXT ( ( #91, #127, #32 ) ) REPRESENTATION_CONTEXT ( 'NONE', 'WORKASPACE' ) );
#37 = APPROVAL_STATUS ( 'not_yet_approved' ) ;
#38 = APPROVAL_DATE_TIME ( #78, #195 ) ;
#39 = AXIS2_PLACEMENT_3D ( 'NONE', #13, #198, #180 ) ;
#40 = CALENDAR_DATE ( 2021, 26, 11 ) ;
#41 = EDGE_LOOP ( 'NONE', ( #207 ) ) ;
#42 = FACE_OUTER_BOUND ( 'NONE', #116, .T. ) ;
#43 = CC_DESIGN_PERSON_AND_ORGANIZATION_ASSIGNMENT ( #55, #111, ( #57 ) ) ;
#44 = FACE_OUTER_BOUND ( 'NONE', #188, .T. ) ;
#45 = DIRECTION ( 'NONE',  ( 3.491481338843133355E-15, -1.049697256412017316E-16, 1.000000000000000000 ) ) ;
#46 = CC_DESIGN_APPROVAL ( #158, ( #2 ) ) ;
#47 = ORIENTED_EDGE ( 'NONE', *, *, #215, .T. ) ;
#48 = AXIS2_PLACEMENT_3D ( 'NONE', #17, #71, #34 ) ;
#49 = EDGE_CURVE ( 'NONE', #103, #103, #74, .T. ) ;
#50 = CLOSED_SHELL ( 'NONE', ( #117, #218, #130, #229, #199 ) ) ;
#51 = DIRECTION ( 'NONE',  ( 0.0000000000000000000, 1.000000000000000000, 0.0000000000000000000 ) ) ;
#52 = CARTESIAN_POINT ( 'NONE',  ( 8.728703347107833388E-16, 2.003999999999998671, 0.2500000000000000000 ) ) ;
#53 = PERSON_AND_ORGANIZATION ( #197, #101 ) ;
#54 = APPROVAL_PERSON_ORGANIZATION ( #204, #65, #202 ) ;
#55 = PERSON_AND_ORGANIZATION ( #197, #101 ) ;
#56 = ORIENTED_EDGE ( 'NONE', *, *, #181, .F. ) ;
#57 = PRODUCT ( '321304', '321304', '', ( #107 ) ) ;
#58 = DATE_AND_TIME ( #184, #236 ) ;
#59 = EDGE_LOOP ( 'NONE', ( #85 ) ) ;
#60 = PERSON_AND_ORGANIZATION ( #197, #101 ) ;
#61 = FACE_OUTER_BOUND ( 'NONE', #4, .T. ) ;
#62 = EDGE_LOOP ( 'NONE', ( #189 ) ) ;
#63 = FACE_OUTER_BOUND ( 'NONE', #41, .T. ) ;
#64 = CARTESIAN_POINT ( 'NONE',  ( 2.444036937190193601E-13, -7.347880794884121511E-15, 70.00000000000000000 ) ) ;
#65 = APPROVAL ( #145, 'UNSPECIFIED' ) ;
#66 = DIRECTION ( 'NONE',  ( -3.491481338843133355E-15, 1.049697256412017316E-16, -1.000000000000000000 ) ) ;
#67 = PLANE ( 'NONE',  #83 ) ;
#68 = VERTEX_POINT ( 'NONE', #138 ) ;
#69 = DIRECTION ( 'NONE',  ( -3.491481338843133355E-15, 1.049697256412017316E-16, -1.000000000000000000 ) ) ;
#70 = EDGE_CURVE ( 'NONE', #140, #140, #31, .T. ) ;
#71 = DIRECTION ( 'NONE',  ( 3.491481338843133355E-15, 5.947260568783572169E-16, 1.000000000000000000 ) ) ;
#72 = FACE_BOUND ( 'NONE', #97, .T. ) ;
#73 = SHAPE_DEFINITION_REPRESENTATION ( #226, #14 ) ;
#74 = CIRCLE ( 'NONE', #102, 2.003999999999999559 ) ;
#75 = COORDINATED_UNIVERSAL_TIME_OFFSET ( 1, 0, .AHEAD. ) ;
#76 = ADVANCED_FACE ( 'NONE', ( #42 ), #95, .T. ) ;
#77 = PERSON_AND_ORGANIZATION ( #197, #101 ) ;
#78 = DATE_AND_TIME ( #18, #220 ) ;
#79 = AXIS2_PLACEMENT_3D ( 'NONE', #100, #141, #51 ) ;
#80 = ADVANCED_FACE ( 'NONE', ( #149, #9 ), #152, .T. ) ;
#81 = DIRECTION ( 'NONE',  ( 2.076474929314544308E-30, -1.000000000000000000, 5.947260568783572169E-16 ) ) ;
#82 = CARTESIAN_POINT ( 'NONE',  ( 2.444036937190193601E-13, -7.347880794884121511E-15, 70.00000000000000000 ) ) ;
#83 = AXIS2_PLACEMENT_3D ( 'NONE', #216, #160, #237 ) ;
#84 = DIRECTION ( 'NONE',  ( -3.491481338843133355E-15, 1.049697256412017316E-16, -1.000000000000000000 ) ) ;
#85 = ORIENTED_EDGE ( 'NONE', *, *, #203, .F. ) ;
#86 = SECURITY_CLASSIFICATION ( '', '', #201 ) ;
#87 = CARTESIAN_POINT ( 'NONE',  ( 3.672268835856713040E-30, 6.255207324894317174E-31, 1.051779597101751044E-15 ) ) ;
#88 = EDGE_CURVE ( 'NONE', #68, #68, #240, .T. ) ;
#89 = DESIGN_CONTEXT ( 'detailed design', #115, 'design' ) ;
#90 = CARTESIAN_POINT ( 'NONE',  ( 2.433562493173664138E-13, 1.499999999999990230, 69.70000000000001705 ) ) ;
#91 =( LENGTH_UNIT ( ) NAMED_UNIT ( * ) SI_UNIT ( .MILLI., .METRE. ) );
#92 = DATE_AND_TIME ( #129, #187 ) ;
#93 = COORDINATED_UNIVERSAL_TIME_OFFSET ( 1, 0, .AHEAD. ) ;
#94 = AXIS2_PLACEMENT_3D ( 'NONE', #87, #104, #239 ) ;
#95 = PLANE ( 'NONE',  #194 ) ;
#96 = ORIENTED_EDGE ( 'NONE', *, *, #168, .T. ) ;
#97 = EDGE_LOOP ( 'NONE', ( #96 ) ) ;
#98 = EDGE_LOOP ( 'NONE', ( #227 ) ) ;
#99 = DIRECTION ( 'NONE',  ( -3.491481338843133355E-15, 1.049697256412017316E-16, -1.000000000000000000 ) ) ;
#100 = CARTESIAN_POINT ( 'NONE',  ( 2.433562493173664138E-13, -7.316389877191761450E-15, 69.70000000000001705 ) ) ;
#101 = ORGANIZATION ( 'UNSPECIFIED', 'UNSPECIFIED', '' ) ;
#102 = AXIS2_PLACEMENT_3D ( 'NONE', #210, #66, #24 ) ;
#103 = VERTEX_POINT ( 'NONE', #12 ) ;
#104 = DIRECTION ( 'NONE',  ( -3.491481338843133355E-15, -5.947260568783572169E-16, -1.000000000000000000 ) ) ;
#105 = FACE_OUTER_BOUND ( 'NONE', #25, .T. ) ;
#106 = CC_DESIGN_DATE_AND_TIME_ASSIGNMENT ( #185, #110, ( #2 ) ) ;
#107 = MECHANICAL_CONTEXT ( 'NONE', #222, 'mechanical' ) ;
#108 = CIRCLE ( 'NONE', #39, 2.003999999999992898 ) ;
#109 = PERSON_AND_ORGANIZATION_ROLE ( 'creator' ) ;
#110 = DATE_TIME_ROLE ( 'creation_date' ) ;
#111 = PERSON_AND_ORGANIZATION_ROLE ( 'design_owner' ) ;
#112 = CC_DESIGN_PERSON_AND_ORGANIZATION_ASSIGNMENT ( #77, #109, ( #166 ) ) ;
#113 = APPROVAL_PERSON_ORGANIZATION ( #243, #195, #1 ) ;
#114 = EDGE_LOOP ( 'NONE', ( #56 ) ) ;
#115 = APPLICATION_CONTEXT ( 'configuration controlled 3d designs of mechanical parts and assemblies' ) ;
#116 = EDGE_LOOP ( 'NONE', ( #132 ) ) ;
#117 = ADVANCED_FACE ( 'NONE', ( #63 ), #135, .T. ) ;
#118 = CYLINDRICAL_SURFACE ( 'NONE', #20, 1.499999999999995337 ) ;
#119 = DIRECTION ( 'NONE',  ( -3.664998382197393967E-31, -1.000000000000000000, -1.049697256412017316E-16 ) ) ;
#120 = CIRCLE ( 'NONE', #142, 1.499999999999992673 ) ;
#121 = CONICAL_SURFACE ( 'NONE', #16, 2.003999999999999559, 0.5235987755982930425 ) ;
#122 = ORIENTED_EDGE ( 'NONE', *, *, #70, .T. ) ;
#123 = CARTESIAN_POINT ( 'NONE',  ( 3.564655158021049086E-14, 2.003999999999998671, 10.20957814771583827 ) ) ;
#124 = DIRECTION ( 'NONE',  ( 0.0000000000000000000, 1.000000000000000000, 0.0000000000000000000 ) ) ;
#125 = AXIS2_PLACEMENT_3D ( 'NONE', #82, #99, #233 ) ;
#126 = DIRECTION ( 'NONE',  ( 0.0000000000000000000, 0.0000000000000000000, 1.000000000000000000 ) ) ;
#127 =( NAMED_UNIT ( * ) PLANE_ANGLE_UNIT ( ) SI_UNIT ( $, .RADIAN. ) );
#128 = CC_DESIGN_APPROVAL ( #195, ( #86 ) ) ;
#129 = CALENDAR_DATE ( 2021, 26, 11 ) ;
#130 = ADVANCED_FACE ( 'NONE', ( #137, #44 ), #118, .T. ) ;
#131 = MANIFOLD_SOLID_BREP ( 'Corps-Déplacer/Copier1[1]', #50 ) ;
#132 = ORIENTED_EDGE ( 'NONE', *, *, #215, .F. ) ;
#133 = MANIFOLD_SOLID_BREP ( 'Corps-Déplacer/Copier1[2]', #159 ) ;
#134 = DIRECTION ( 'NONE',  ( 0.0000000000000000000, 1.000000000000000000, 0.0000000000000000000 ) ) ;
#135 = PLANE ( 'NONE',  #228 ) ;
#136 = CARTESIAN_POINT ( 'NONE',  ( 2.433562493173664138E-13, -7.316389877191761450E-15, 69.70000000000001705 ) ) ;
#137 = FACE_OUTER_BOUND ( 'NONE', #169, .T. ) ;
#138 = CARTESIAN_POINT ( 'NONE',  ( 2.444036937190193601E-13, 1.199999999999990186, 70.00000000000000000 ) ) ;
#139 = PRODUCT_RELATED_PRODUCT_CATEGORY ( 'detail', '', ( #57 ) ) ;
#140 = VERTEX_POINT ( 'NONE', #90 ) ;
#141 = DIRECTION ( 'NONE',  ( -3.491481338843133355E-15, 1.049697256412017316E-16, -1.000000000000000000 ) ) ;
#142 = AXIS2_PLACEMENT_3D ( 'NONE', #27, #191, #28 ) ;
#143 = CARTESIAN_POINT ( 'NONE',  ( 3.869445280877825183E-14, 1.499999999999991562, 11.08253175473057617 ) ) ;
#144 = FACE_OUTER_BOUND ( 'NONE', #151, .T. ) ;
#145 = APPROVAL_STATUS ( 'not_yet_approved' ) ;
#146 = PERSON_AND_ORGANIZATION_ROLE ( 'design_supplier' ) ;
#147 = COORDINATED_UNIVERSAL_TIME_OFFSET ( 1, 0, .AHEAD. ) ;
#148 = CC_DESIGN_PERSON_AND_ORGANIZATION_ASSIGNMENT ( #53, #3, ( #2 ) ) ;
#149 = FACE_OUTER_BOUND ( 'NONE', #162, .T. ) ;
#150 = APPROVAL_PERSON_ORGANIZATION ( #5, #158, #206 ) ;
#151 = EDGE_LOOP ( 'NONE', ( #211 ) ) ;
#152 = CYLINDRICAL_SURFACE ( 'NONE', #232, 2.003999999999996007 ) ;
#153 = PLANE ( 'NONE',  #165 ) ;
#154 = CC_DESIGN_APPROVAL ( #65, ( #166 ) ) ;
#155 = LOCAL_TIME ( 14, 2, 21.00000000000000000, #19 ) ;
#156 = CARTESIAN_POINT ( 'NONE',  ( -1.892735826383168144E-31, 1.859662432702592794, -5.421010862427522170E-17 ) ) ;
#157 = APPLICATION_PROTOCOL_DEFINITION ( 'international standard', 'config_control_design', 1994, #222 ) ;
#158 = APPROVAL ( #37, 'UNSPECIFIED' ) ;
#159 = CLOSED_SHELL ( 'NONE', ( #76, #80, #241, #6 ) ) ;
#160 = DIRECTION ( 'NONE',  ( -3.491481338843133355E-15, 1.049697256412017316E-16, -1.000000000000000000 ) ) ;
#161 = DATE_TIME_ROLE ( 'classification_date' ) ;
#162 = EDGE_LOOP ( 'NONE', ( #47 ) ) ;
#163 = DATE_AND_TIME ( #164, #209 ) ;
#164 = CALENDAR_DATE ( 2021, 26, 11 ) ;
#165 = AXIS2_PLACEMENT_3D ( 'NONE', #29, #167, #171 ) ;
#166 = PRODUCT_DEFINITION_FORMATION_WITH_SPECIFIED_SOURCE ( 'ANY', '', #57, .NOT_KNOWN. ) ;
#167 = DIRECTION ( 'NONE',  ( -3.491481338843133355E-15, -5.947260568783572169E-16, -1.000000000000000000 ) ) ;
#168 = EDGE_CURVE ( 'NONE', #219, #219, #120, .T. ) ;
#169 = EDGE_LOOP ( 'NONE', ( #122 ) ) ;
#170 = EDGE_LOOP ( 'NONE', ( #192 ) ) ;
#171 = DIRECTION ( 'NONE',  ( -2.076474929314544308E-30, 1.000000000000000000, -5.947260568783572169E-16 ) ) ;
#172 = CC_DESIGN_PERSON_AND_ORGANIZATION_ASSIGNMENT ( #223, #21, ( #86 ) ) ;
#173 = DIRECTION ( 'NONE',  ( -3.491481338843133355E-15, 1.049697256412017316E-16, -1.000000000000000000 ) ) ;
#174 = CARTESIAN_POINT ( 'NONE',  ( 3.564655158021049086E-14, -1.071696617078140122E-15, 10.20957814771583827 ) ) ;
#175 = VERTEX_POINT ( 'NONE', #156 ) ;
#176 = UNCERTAINTY_MEASURE_WITH_UNIT (LENGTH_MEASURE( 1.000000000000000082E-05 ), #91, 'distance_accuracy_value', 'NONE');
#177 = VERTEX_POINT ( 'NONE', #123 ) ;
#178 = FACE_BOUND ( 'NONE', #59, .T. ) ;
#179 = CIRCLE ( 'NONE', #183, 2.003999999999998671 ) ;
#180 = DIRECTION ( 'NONE',  ( -3.075337236546495176E-30, 1.000000000000000000, -8.656304770343379117E-16 ) ) ;
#181 = EDGE_CURVE ( 'NONE', #15, #15, #179, .T. ) ;
#182 = COORDINATED_UNIVERSAL_TIME_OFFSET ( 1, 0, .AHEAD. ) ;
#183 = AXIS2_PLACEMENT_3D ( 'NONE', #213, #30, #214 ) ;
#184 = CALENDAR_DATE ( 2021, 26, 11 ) ;
#185 = DATE_AND_TIME ( #40, #155 ) ;
#186 = AXIS2_PLACEMENT_3D ( 'NONE', #238, #126, #196 ) ;
#187 = LOCAL_TIME ( 14, 2, 21.00000000000000000, #182 ) ;
#188 = EDGE_LOOP ( 'NONE', ( #22 ) ) ;
#189 = ORIENTED_EDGE ( 'NONE', *, *, #88, .T. ) ;
#190 = CARTESIAN_POINT ( 'NONE',  ( 0.0000000000000000000, 0.0000000000000000000, 0.0000000000000000000 ) ) ;
#191 = DIRECTION ( 'NONE',  ( -3.491481338843133355E-15, 1.049697256412017316E-16, -1.000000000000000000 ) ) ;
#192 = ORIENTED_EDGE ( 'NONE', *, *, #49, .T. ) ;
#193 = CC_DESIGN_SECURITY_CLASSIFICATION ( #86, ( #166 ) ) ;
#194 = AXIS2_PLACEMENT_3D ( 'NONE', #230, #7, #81 ) ;
#195 = APPROVAL ( #225, 'UNSPECIFIED' ) ;
#196 = DIRECTION ( 'NONE',  ( 1.000000000000000000, 0.0000000000000000000, 0.0000000000000000000 ) ) ;
#197 = PERSON ( 'UNSPECIFIED', 'UNSPECIFIED', 'UNSPECIFIED', ('UNSPECIFIED'), ('UNSPECIFIED'), ('UNSPECIFIED') ) ;
#198 = DIRECTION ( 'NONE',  ( -3.491481338843133355E-15, -5.947260568783572169E-16, -1.000000000000000000 ) ) ;
#199 = ADVANCED_FACE ( 'NONE', ( #11 ), #67, .T. ) ;
#200 = AXIS2_PLACEMENT_3D ( 'NONE', #136, #84, #134 ) ;
#201 = SECURITY_CLASSIFICATION_LEVEL ( 'unclassified' ) ;
#202 = APPROVAL_ROLE ( '' ) ;
#203 = EDGE_CURVE ( 'NONE', #175, #175, #217, .T. ) ;
#204 = PERSON_AND_ORGANIZATION ( #197, #101 ) ;
#205 = CONICAL_SURFACE ( 'NONE', #79, 1.499999999999997558, 0.7853981633974573828 ) ;
#206 = APPROVAL_ROLE ( '' ) ;
#207 = ORIENTED_EDGE ( 'NONE', *, *, #88, .F. ) ;
#208 = CONICAL_SURFACE ( 'NONE', #48, 1.859662432702592794, 0.5235987755982975944 ) ;
#209 = LOCAL_TIME ( 14, 2, 21.00000000000000000, #75 ) ;
#210 = CARTESIAN_POINT ( 'NONE',  ( 3.564655158021049086E-14, -1.071696617078140122E-15, 10.20957814771583827 ) ) ;
#211 = ORIENTED_EDGE ( 'NONE', *, *, #181, .T. ) ;
#212 = ORIENTED_EDGE ( 'NONE', *, *, #203, .T. ) ;
#213 = CARTESIAN_POINT ( 'NONE',  ( 8.728703347107875789E-16, 1.486815142195900191E-16, 0.2500000000000012212 ) ) ;
#214 = DIRECTION ( 'NONE',  ( -2.114294350125709303E-30, 1.000000000000000000, -5.951209529611055886E-16 ) ) ;
#215 = EDGE_CURVE ( 'NONE', #177, #177, #108, .T. ) ;
#216 = CARTESIAN_POINT ( 'NONE',  ( 3.564655158021048455E-14, 2.003999999999998671, 10.20957814771583649 ) ) ;
#217 = CIRCLE ( 'NONE', #94, 1.859662432702592794 ) ;
#218 = ADVANCED_FACE ( 'NONE', ( #35, #242 ), #205, .T. ) ;
#219 = VERTEX_POINT ( 'NONE', #143 ) ;
#220 = LOCAL_TIME ( 14, 2, 21.00000000000000000, #93 ) ;
#221 = APPROVAL_DATE_TIME ( #163, #65 ) ;
#222 = APPLICATION_CONTEXT ( 'configuration controlled 3d designs of mechanical parts and assemblies' ) ;
#223 = PERSON_AND_ORGANIZATION ( #197, #101 ) ;
#224 = APPROVAL_DATE_TIME ( #92, #158 ) ;
#225 = APPROVAL_STATUS ( 'not_yet_approved' ) ;
#226 = PRODUCT_DEFINITION_SHAPE ( 'NONE', 'NONE',  #2 ) ;
#227 = ORIENTED_EDGE ( 'NONE', *, *, #70, .F. ) ;
#228 = AXIS2_PLACEMENT_3D ( 'NONE', #64, #45, #119 ) ;
#229 = ADVANCED_FACE ( 'NONE', ( #72, #105 ), #121, .T. ) ;
#230 = CARTESIAN_POINT ( 'NONE',  ( 3.564655158021048455E-14, 6.071902154182480887E-15, 10.20957814771583649 ) ) ;
#231 = CARTESIAN_POINT ( 'NONE',  ( 0.0000000000000000000, 0.0000000000000000000, 0.0000000000000000000 ) ) ;
#232 = AXIS2_PLACEMENT_3D ( 'NONE', #231, #8, #234 ) ;
#233 = DIRECTION ( 'NONE',  ( 0.0000000000000000000, 1.000000000000000000, 0.0000000000000000000 ) ) ;
#234 = DIRECTION ( 'NONE',  ( -2.076474929314543958E-30, 1.000000000000000000, -5.947260568783572169E-16 ) ) ;
#235 = DIRECTION ( 'NONE',  ( 3.664998382197393967E-31, 1.000000000000000000, 1.049697256412017316E-16 ) ) ;
#236 = LOCAL_TIME ( 14, 2, 21.00000000000000000, #147 ) ;
#237 = DIRECTION ( 'NONE',  ( 3.664998382197393967E-31, 1.000000000000000000, 1.049697256412017316E-16 ) ) ;
#238 = CARTESIAN_POINT ( 'NONE',  ( 0.0000000000000000000, 0.0000000000000000000, 0.0000000000000000000 ) ) ;
#239 = DIRECTION ( 'NONE',  ( -2.076474929314544308E-30, 1.000000000000000000, -5.947260568783572169E-16 ) ) ;
#240 = CIRCLE ( 'NONE', #125, 1.199999999999997513 ) ;
#241 = ADVANCED_FACE ( 'NONE', ( #144, #178 ), #208, .T. ) ;
#242 = FACE_OUTER_BOUND ( 'NONE', #98, .T. ) ;
#243 = PERSON_AND_ORGANIZATION ( #197, #101 ) ;
ENDSEC;
END-ISO-10303-21;
