ISO-10303-21;
HEADER;
FILE_DESCRIPTION (( 'STEP AP203' ),
    '1' );
FILE_NAME ('321303.step',
    '2021-11-26T13:02:20',
    ( '' ),
    ( '' ),
    'SwSTEP 2.0',
    'SolidWorks 2019',
    '' );
FILE_SCHEMA (( 'CONFIG_CONTROL_DESIGN' ));
ENDSEC;

DATA;
#1 = AXIS2_PLACEMENT_3D ( 'NONE', #231, #235, #162 ) ;
#2 = VERTEX_POINT ( 'NONE', #145 ) ;
#3 = DIRECTION ( 'NONE',  ( 3.664998382197393967E-31, 1.000000000000000000, 1.049697256412017316E-16 ) ) ;
#4 = FACE_OUTER_BOUND ( 'NONE', #183, .T. ) ;
#5 = CC_DESIGN_PERSON_AND_ORGANIZATION_ASSIGNMENT ( #213, #96, ( #66 ) ) ;
#6 = CARTESIAN_POINT ( 'NONE',  ( 0.0000000000000000000, 0.0000000000000000000, 0.0000000000000000000 ) ) ;
#7 = AXIS2_PLACEMENT_3D ( 'NONE', #120, #100, #150 ) ;
#8 = CARTESIAN_POINT ( 'NONE',  ( 3.567678869557327222E-14, -1.072605681568476043E-15, 10.21823840175368581 ) ) ;
#9 = PERSON_AND_ORGANIZATION_ROLE ( 'design_owner' ) ;
#10 = APPROVAL_DATE_TIME ( #85, #154 ) ;
#11 = AXIS2_PLACEMENT_3D ( 'NONE', #17, #149, #91 ) ;
#12 = CALENDAR_DATE ( 2021, 26, 11 ) ;
#13 = COORDINATED_UNIVERSAL_TIME_OFFSET ( 1, 0, .AHEAD. ) ;
#14 = AXIS2_PLACEMENT_3D ( 'NONE', #229, #55, #67 ) ;
#15 = DIRECTION ( 'NONE',  ( -3.491481338843133355E-15, 1.049697256412017316E-16, -1.000000000000000000 ) ) ;
#16 = ADVANCED_FACE ( 'NONE', ( #160 ), #123, .T. ) ;
#17 = CARTESIAN_POINT ( 'NONE',  ( 3.567678869557327853E-14, 6.069781003705034742E-15, 10.21823840175368758 ) ) ;
#18 = ADVANCED_BREP_SHAPE_REPRESENTATION ( '321303', ( #226, #62, #7 ), #113 ) ;
#19 = DIRECTION ( 'NONE',  ( -3.491481338843133355E-15, 1.049697256412017316E-16, -1.000000000000000000 ) ) ;
#20 = DIRECTION ( 'NONE',  ( 2.073990278173930352E-30, -1.000000000000000000, 5.940144245081734813E-16 ) ) ;
#21 = APPROVAL_PERSON_ORGANIZATION ( #51, #184, #31 ) ;
#22 = EDGE_CURVE ( 'NONE', #39, #39, #205, .T. ) ;
#23 = DIRECTION ( 'NONE',  ( -3.491481338843133355E-15, 1.049697256412017316E-16, -1.000000000000000000 ) ) ;
#24 = DIRECTION ( 'NONE',  ( -2.073990278173930703E-30, 1.000000000000000000, -5.940144245081734813E-16 ) ) ;
#25 = VERTEX_POINT ( 'NONE', #95 ) ;
#26 = AXIS2_PLACEMENT_3D ( 'NONE', #6, #78, #3 ) ;
#27 = DATE_AND_TIME ( #122, #173 ) ;
#28 = APPROVAL_ROLE ( '' ) ;
#29 = AXIS2_PLACEMENT_3D ( 'NONE', #61, #57, #24 ) ;
#30 = APPLICATION_PROTOCOL_DEFINITION ( 'international standard', 'config_control_design', 1994, #177 ) ;
#31 = APPROVAL_ROLE ( '' ) ;
#32 = DIRECTION ( 'NONE',  ( -2.119582730191056513E-30, 1.000000000000000000, -5.966094996168362923E-16 ) ) ;
#33 = ADVANCED_FACE ( 'NONE', ( #53 ), #201, .T. ) ;
#34 = DIRECTION ( 'NONE',  ( 0.0000000000000000000, 1.000000000000000000, 0.0000000000000000000 ) ) ;
#35 = EDGE_LOOP ( 'NONE', ( #105 ) ) ;
#36 = CIRCLE ( 'NONE', #94, 1.499999999999997558 ) ;
#37 = ORIENTED_EDGE ( 'NONE', *, *, #147, .F. ) ;
#38 = CARTESIAN_POINT ( 'NONE',  ( 3.567678869557327222E-14, -1.072605681568476043E-15, 10.21823840175368581 ) ) ;
#39 = VERTEX_POINT ( 'NONE', #135 ) ;
#40 = AXIS2_PLACEMENT_3D ( 'NONE', #8, #111, #132 ) ;
#41 = VERTEX_POINT ( 'NONE', #212 ) ;
#42 = LOCAL_TIME ( 14, 2, 20.00000000000000000, #101 ) ;
#43 = DIRECTION ( 'NONE',  ( 3.491481338843133355E-15, -1.049697256412017316E-16, 1.000000000000000000 ) ) ;
#44 = VERTEX_POINT ( 'NONE', #117 ) ;
#45 = SECURITY_CLASSIFICATION_LEVEL ( 'unclassified' ) ;
#46 = CONICAL_SURFACE ( 'NONE', #40, 1.998999999999999444, 0.5235987755982940417 ) ;
#47 = AXIS2_PLACEMENT_3D ( 'NONE', #58, #23, #230 ) ;
#48 = DATE_AND_TIME ( #171, #108 ) ;
#49 = EDGE_CURVE ( 'NONE', #2, #2, #112, .T. ) ;
#50 = PERSON_AND_ORGANIZATION ( #70, #164 ) ;
#51 = PERSON_AND_ORGANIZATION ( #70, #164 ) ;
#52 = EDGE_LOOP ( 'NONE', ( #106 ) ) ;
#53 = FACE_OUTER_BOUND ( 'NONE', #124, .T. ) ;
#54 = DIRECTION ( 'NONE',  ( 3.664998382197393967E-31, 1.000000000000000000, 1.049697256412017316E-16 ) ) ;
#55 = DIRECTION ( 'NONE',  ( 3.491481338843133355E-15, 5.940144245081734813E-16, 1.000000000000000000 ) ) ;
#56 = DIRECTION ( 'NONE',  ( -3.664998382197393967E-31, -1.000000000000000000, -1.049697256412017316E-16 ) ) ;
#57 = DIRECTION ( 'NONE',  ( -3.491481338843133355E-15, -5.940144245081734813E-16, -1.000000000000000000 ) ) ;
#58 = CARTESIAN_POINT ( 'NONE',  ( 2.433562493173664138E-13, -7.316389877191761450E-15, 69.70000000000001705 ) ) ;
#59 = PRODUCT_DEFINITION_SHAPE ( 'NONE', 'NONE',  #66 ) ;
#60 = DIRECTION ( 'NONE',  ( -3.491481338843133355E-15, 1.049697256412017316E-16, -1.000000000000000000 ) ) ;
#61 = CARTESIAN_POINT ( 'NONE',  ( 0.0000000000000000000, 0.0000000000000000000, 0.0000000000000000000 ) ) ;
#62 = MANIFOLD_SOLID_BREP ( 'Corps-Déplacer/Copier1[2]', #221 ) ;
#63 = PERSON_AND_ORGANIZATION_ROLE ( 'design_supplier' ) ;
#64 = DESIGN_CONTEXT ( 'detailed design', #177, 'design' ) ;
#65 = DATE_AND_TIME ( #86, #142 ) ;
#66 = PRODUCT_DEFINITION ( 'UNKNOWN', '', #233, #64 ) ;
#67 = DIRECTION ( 'NONE',  ( 2.073990278173931053E-30, -1.000000000000000000, 5.940144245081734813E-16 ) ) ;
#68 = CIRCLE ( 'NONE', #232, 1.854662432702592456 ) ;
#69 = CC_DESIGN_APPROVAL ( #88, ( #66 ) ) ;
#70 = PERSON ( 'UNSPECIFIED', 'UNSPECIFIED', 'UNSPECIFIED', ('UNSPECIFIED'), ('UNSPECIFIED'), ('UNSPECIFIED') ) ;
#71 = CC_DESIGN_DATE_AND_TIME_ASSIGNMENT ( #65, #219, ( #129 ) ) ;
#72 = EDGE_LOOP ( 'NONE', ( #87 ) ) ;
#73 = DIRECTION ( 'NONE',  ( 0.0000000000000000000, 1.000000000000000000, 0.0000000000000000000 ) ) ;
#74 = AXIS2_PLACEMENT_3D ( 'NONE', #198, #109, #32 ) ;
#75 = APPROVAL_PERSON_ORGANIZATION ( #83, #88, #28 ) ;
#76 = PLANE ( 'NONE',  #1 ) ;
#77 = FACE_OUTER_BOUND ( 'NONE', #90, .T. ) ;
#78 = DIRECTION ( 'NONE',  ( -3.491481338843133355E-15, 1.049697256412017316E-16, -1.000000000000000000 ) ) ;
#79 = CIRCLE ( 'NONE', #103, 1.499999999999992673 ) ;
#80 = PLANE ( 'NONE',  #178 ) ;
#81 = CARTESIAN_POINT ( 'NONE',  ( -1.892735826383161356E-31, 1.854662432702592456, -5.421010862427522170E-17 ) ) ;
#82 =( NAMED_UNIT ( * ) PLANE_ANGLE_UNIT ( ) SI_UNIT ( $, .RADIAN. ) );
#83 = PERSON_AND_ORGANIZATION ( #70, #164 ) ;
#84 = APPROVAL_DATE_TIME ( #27, #88 ) ;
#85 = DATE_AND_TIME ( #12, #199 ) ;
#86 = CALENDAR_DATE ( 2021, 26, 11 ) ;
#87 = ORIENTED_EDGE ( 'NONE', *, *, #147, .T. ) ;
#88 = APPROVAL ( #193, 'UNSPECIFIED' ) ;
#89 = CONICAL_SURFACE ( 'NONE', #99, 1.854662432702592456, 0.5235987755982975944 ) ;
#90 = EDGE_LOOP ( 'NONE', ( #240 ) ) ;
#91 = DIRECTION ( 'NONE',  ( -3.083029425732455074E-30, 1.000000000000000000, -8.677956358063099338E-16 ) ) ;
#92 = CARTESIAN_POINT ( 'NONE',  ( 3.657278272081273238E-30, 6.222218700949529702E-31, 1.047486128994484259E-15 ) ) ;
#93 = FACE_BOUND ( 'NONE', #72, .T. ) ;
#94 = AXIS2_PLACEMENT_3D ( 'NONE', #125, #15, #34 ) ;
#95 = CARTESIAN_POINT ( 'NONE',  ( 3.567678869557327222E-14, 1.998999999999998556, 10.21823840175368581 ) ) ;
#96 = PERSON_AND_ORGANIZATION_ROLE ( 'creator' ) ;
#97 = COORDINATED_UNIVERSAL_TIME_OFFSET ( 1, 0, .AHEAD. ) ;
#98 = MECHANICAL_CONTEXT ( 'NONE', #168, 'mechanical' ) ;
#99 = AXIS2_PLACEMENT_3D ( 'NONE', #148, #167, #20 ) ;
#100 = DIRECTION ( 'NONE',  ( 0.0000000000000000000, 0.0000000000000000000, 1.000000000000000000 ) ) ;
#101 = COORDINATED_UNIVERSAL_TIME_OFFSET ( 1, 0, .AHEAD. ) ;
#102 = CARTESIAN_POINT ( 'NONE',  ( 3.869445280877825183E-14, -1.163330317703974635E-15, 11.08253175473057617 ) ) ;
#103 = AXIS2_PLACEMENT_3D ( 'NONE', #102, #140, #157 ) ;
#104 = DIRECTION ( 'NONE',  ( -3.491481338843133355E-15, 1.049697256412017316E-16, -1.000000000000000000 ) ) ;
#105 = ORIENTED_EDGE ( 'NONE', *, *, #207, .F. ) ;
#106 = ORIENTED_EDGE ( 'NONE', *, *, #22, .F. ) ;
#107 = CIRCLE ( 'NONE', #11, 1.998999999999992561 ) ;
#108 = LOCAL_TIME ( 14, 2, 20.00000000000000000, #97 ) ;
#109 = DIRECTION ( 'NONE',  ( -3.491481338843133355E-15, -5.940144245081734813E-16, -1.000000000000000000 ) ) ;
#110 = FACE_OUTER_BOUND ( 'NONE', #126, .T. ) ;
#111 = DIRECTION ( 'NONE',  ( -3.491481338843133355E-15, 1.049697256412017316E-16, -1.000000000000000000 ) ) ;
#112 = CIRCLE ( 'NONE', #74, 1.998999999999998556 ) ;
#113 =( GEOMETRIC_REPRESENTATION_CONTEXT ( 3 ) GLOBAL_UNCERTAINTY_ASSIGNED_CONTEXT ( ( #192 ) ) GLOBAL_UNIT_ASSIGNED_CONTEXT ( ( #238, #82, #191 ) ) REPRESENTATION_CONTEXT ( 'NONE', 'WORKASPACE' ) );
#114 = VERTEX_POINT ( 'NONE', #189 ) ;
#115 = CC_DESIGN_PERSON_AND_ORGANIZATION_ASSIGNMENT ( #50, #63, ( #233 ) ) ;
#116 = CYLINDRICAL_SURFACE ( 'NONE', #29, 1.998999999999995669 ) ;
#117 = CARTESIAN_POINT ( 'NONE',  ( 2.433562493173664138E-13, 1.499999999999990230, 69.70000000000001705 ) ) ;
#118 = CC_DESIGN_PERSON_AND_ORGANIZATION_ASSIGNMENT ( #237, #9, ( #133 ) ) ;
#119 = PERSON_AND_ORGANIZATION ( #70, #164 ) ;
#120 = CARTESIAN_POINT ( 'NONE',  ( 0.0000000000000000000, 0.0000000000000000000, 0.0000000000000000000 ) ) ;
#121 = CC_DESIGN_APPROVAL ( #154, ( #233 ) ) ;
#122 = CALENDAR_DATE ( 2021, 26, 11 ) ;
#123 = PLANE ( 'NONE',  #182 ) ;
#124 = EDGE_LOOP ( 'NONE', ( #225 ) ) ;
#125 = CARTESIAN_POINT ( 'NONE',  ( 2.433562493173664138E-13, -7.316389877191761450E-15, 69.70000000000001705 ) ) ;
#126 = EDGE_LOOP ( 'NONE', ( #180 ) ) ;
#127 = SHAPE_DEFINITION_REPRESENTATION ( #59, #18 ) ;
#128 = EDGE_LOOP ( 'NONE', ( #158 ) ) ;
#129 = SECURITY_CLASSIFICATION ( '', '', #45 ) ;
#130 = FACE_BOUND ( 'NONE', #141, .T. ) ;
#131 = FACE_OUTER_BOUND ( 'NONE', #52, .T. ) ;
#132 = DIRECTION ( 'NONE',  ( 0.0000000000000000000, 1.000000000000000000, 0.0000000000000000000 ) ) ;
#133 = PRODUCT ( '321303', '321303', '', ( #98 ) ) ;
#134 = DIRECTION ( 'NONE',  ( 0.0000000000000000000, 1.000000000000000000, 0.0000000000000000000 ) ) ;
#135 = CARTESIAN_POINT ( 'NONE',  ( 2.444036937190193601E-13, 1.199999999999990186, 70.00000000000000000 ) ) ;
#136 = PRODUCT_RELATED_PRODUCT_CATEGORY ( 'detail', '', ( #133 ) ) ;
#137 = CIRCLE ( 'NONE', #163, 1.998999999999999444 ) ;
#138 = PERSON_AND_ORGANIZATION_ROLE ( 'classification_officer' ) ;
#139 = PERSON_AND_ORGANIZATION ( #70, #164 ) ;
#140 = DIRECTION ( 'NONE',  ( -3.491481338843133355E-15, 1.049697256412017316E-16, -1.000000000000000000 ) ) ;
#141 = EDGE_LOOP ( 'NONE', ( #159 ) ) ;
#142 = LOCAL_TIME ( 14, 2, 20.00000000000000000, #217 ) ;
#143 = ORIENTED_EDGE ( 'NONE', *, *, #165, .F. ) ;
#144 = EDGE_LOOP ( 'NONE', ( #143 ) ) ;
#145 = CARTESIAN_POINT ( 'NONE',  ( 8.728703347107833388E-16, 1.998999999999998556, 0.2500000000000000000 ) ) ;
#146 = FACE_OUTER_BOUND ( 'NONE', #144, .T. ) ;
#147 = EDGE_CURVE ( 'NONE', #41, #41, #79, .T. ) ;
#148 = CARTESIAN_POINT ( 'NONE',  ( 3.657278272081273238E-30, 6.222218700949529702E-31, 1.047486128994484259E-15 ) ) ;
#149 = DIRECTION ( 'NONE',  ( -3.491481338843133355E-15, -5.940144245081734813E-16, -1.000000000000000000 ) ) ;
#150 = DIRECTION ( 'NONE',  ( 1.000000000000000000, 0.0000000000000000000, 0.0000000000000000000 ) ) ;
#151 = CC_DESIGN_APPROVAL ( #184, ( #129 ) ) ;
#152 = APPLICATION_PROTOCOL_DEFINITION ( 'international standard', 'config_control_design', 1994, #168 ) ;
#153 = PERSON_AND_ORGANIZATION ( #70, #164 ) ;
#154 = APPROVAL ( #174, 'UNSPECIFIED' ) ;
#155 = PERSON_AND_ORGANIZATION_ROLE ( 'creator' ) ;
#156 = APPROVAL_PERSON_ORGANIZATION ( #153, #154, #172 ) ;
#157 = DIRECTION ( 'NONE',  ( 0.0000000000000000000, 1.000000000000000000, 0.0000000000000000000 ) ) ;
#158 = ORIENTED_EDGE ( 'NONE', *, *, #220, .T. ) ;
#159 = ORIENTED_EDGE ( 'NONE', *, *, #22, .T. ) ;
#160 = FACE_OUTER_BOUND ( 'NONE', #181, .T. ) ;
#161 = EDGE_LOOP ( 'NONE', ( #204 ) ) ;
#162 = DIRECTION ( 'NONE',  ( -2.073990278173931053E-30, 1.000000000000000000, -5.940144245081734813E-16 ) ) ;
#163 = AXIS2_PLACEMENT_3D ( 'NONE', #38, #60, #134 ) ;
#164 = ORGANIZATION ( 'UNSPECIFIED', 'UNSPECIFIED', '' ) ;
#165 = EDGE_CURVE ( 'NONE', #44, #44, #36, .T. ) ;
#166 = DIRECTION ( 'NONE',  ( -3.491481338843133355E-15, -5.940144245081734813E-16, -1.000000000000000000 ) ) ;
#167 = DIRECTION ( 'NONE',  ( 3.491481338843133355E-15, 5.940144245081734813E-16, 1.000000000000000000 ) ) ;
#168 = APPLICATION_CONTEXT ( 'configuration controlled 3d designs of mechanical parts and assemblies' ) ;
#169 = FACE_OUTER_BOUND ( 'NONE', #35, .T. ) ;
#170 = VERTEX_POINT ( 'NONE', #81 ) ;
#171 = CALENDAR_DATE ( 2021, 26, 11 ) ;
#172 = APPROVAL_ROLE ( '' ) ;
#173 = LOCAL_TIME ( 14, 2, 20.00000000000000000, #215 ) ;
#174 = APPROVAL_STATUS ( 'not_yet_approved' ) ;
#175 = EDGE_CURVE ( 'NONE', #114, #114, #107, .T. ) ;
#176 = CALENDAR_DATE ( 2021, 26, 11 ) ;
#177 = APPLICATION_CONTEXT ( 'configuration controlled 3d designs of mechanical parts and assemblies' ) ;
#178 = AXIS2_PLACEMENT_3D ( 'NONE', #188, #43, #56 ) ;
#179 = ORIENTED_EDGE ( 'NONE', *, *, #165, .T. ) ;
#180 = ORIENTED_EDGE ( 'NONE', *, *, #49, .F. ) ;
#181 = EDGE_LOOP ( 'NONE', ( #200 ) ) ;
#182 = AXIS2_PLACEMENT_3D ( 'NONE', #241, #104, #54 ) ;
#183 = EDGE_LOOP ( 'NONE', ( #37 ) ) ;
#184 = APPROVAL ( #196, 'UNSPECIFIED' ) ;
#185 = FACE_OUTER_BOUND ( 'NONE', #161, .T. ) ;
#186 = ADVANCED_FACE ( 'NONE', ( #93, #169 ), #46, .T. ) ;
#187 = FACE_BOUND ( 'NONE', #227, .T. ) ;
#188 = CARTESIAN_POINT ( 'NONE',  ( 2.444036937190193601E-13, -7.347880794884121511E-15, 70.00000000000000000 ) ) ;
#189 = CARTESIAN_POINT ( 'NONE',  ( 3.567678869557327222E-14, 1.998999999999998556, 10.21823840175368581 ) ) ;
#190 = CC_DESIGN_SECURITY_CLASSIFICATION ( #129, ( #233 ) ) ;
#191 =( NAMED_UNIT ( * ) SI_UNIT ( $, .STERADIAN. ) SOLID_ANGLE_UNIT ( ) );
#192 = UNCERTAINTY_MEASURE_WITH_UNIT (LENGTH_MEASURE( 1.000000000000000082E-05 ), #238, 'distance_accuracy_value', 'NONE');
#193 = APPROVAL_STATUS ( 'not_yet_approved' ) ;
#194 = ADVANCED_FACE ( 'NONE', ( #131 ), #80, .T. ) ;
#195 = AXIS2_PLACEMENT_3D ( 'NONE', #239, #19, #73 ) ;
#196 = APPROVAL_STATUS ( 'not_yet_approved' ) ;
#197 = ADVANCED_FACE ( 'NONE', ( #209 ), #76, .T. ) ;
#198 = CARTESIAN_POINT ( 'NONE',  ( 8.728703347107875789E-16, 1.485036061270440852E-16, 0.2500000000000012212 ) ) ;
#199 = LOCAL_TIME ( 14, 2, 20.00000000000000000, #13 ) ;
#200 = ORIENTED_EDGE ( 'NONE', *, *, #207, .T. ) ;
#201 = PLANE ( 'NONE',  #14 ) ;
#202 = APPROVAL_DATE_TIME ( #236, #184 ) ;
#203 = CC_DESIGN_DATE_AND_TIME_ASSIGNMENT ( #48, #218, ( #66 ) ) ;
#204 = ORIENTED_EDGE ( 'NONE', *, *, #175, .T. ) ;
#205 = CIRCLE ( 'NONE', #195, 1.199999999999997513 ) ;
#206 = DIRECTION ( 'NONE',  ( -2.073990278173930703E-30, 1.000000000000000000, -5.940144245081734813E-16 ) ) ;
#207 = EDGE_CURVE ( 'NONE', #25, #25, #137, .T. ) ;
#208 = CYLINDRICAL_SURFACE ( 'NONE', #26, 1.499999999999995337 ) ;
#209 = FACE_OUTER_BOUND ( 'NONE', #128, .T. ) ;
#210 = FACE_OUTER_BOUND ( 'NONE', #243, .T. ) ;
#211 = CC_DESIGN_PERSON_AND_ORGANIZATION_ASSIGNMENT ( #119, #138, ( #129 ) ) ;
#212 = CARTESIAN_POINT ( 'NONE',  ( 3.869445280877825183E-14, 1.499999999999991562, 11.08253175473057617 ) ) ;
#213 = PERSON_AND_ORGANIZATION ( #70, #164 ) ;
#214 = CLOSED_SHELL ( 'NONE', ( #194, #224, #228, #186, #16 ) ) ;
#215 = COORDINATED_UNIVERSAL_TIME_OFFSET ( 1, 0, .AHEAD. ) ;
#216 = ADVANCED_FACE ( 'NONE', ( #77, #187 ), #89, .T. ) ;
#217 = COORDINATED_UNIVERSAL_TIME_OFFSET ( 1, 0, .AHEAD. ) ;
#218 = DATE_TIME_ROLE ( 'creation_date' ) ;
#219 = DATE_TIME_ROLE ( 'classification_date' ) ;
#220 = EDGE_CURVE ( 'NONE', #170, #170, #68, .T. ) ;
#221 = CLOSED_SHELL ( 'NONE', ( #33, #242, #216, #197 ) ) ;
#222 = CONICAL_SURFACE ( 'NONE', #47, 1.499999999999997558, 0.7853981633974573828 ) ;
#223 = ORIENTED_EDGE ( 'NONE', *, *, #220, .F. ) ;
#224 = ADVANCED_FACE ( 'NONE', ( #130, #146 ), #222, .T. ) ;
#225 = ORIENTED_EDGE ( 'NONE', *, *, #175, .F. ) ;
#226 = MANIFOLD_SOLID_BREP ( 'Corps-Déplacer/Copier1[1]', #214 ) ;
#227 = EDGE_LOOP ( 'NONE', ( #223 ) ) ;
#228 = ADVANCED_FACE ( 'NONE', ( #210, #4 ), #208, .T. ) ;
#229 = CARTESIAN_POINT ( 'NONE',  ( 3.567678869557327222E-14, 6.069781003705031587E-15, 10.21823840175368403 ) ) ;
#230 = DIRECTION ( 'NONE',  ( 0.0000000000000000000, 1.000000000000000000, 0.0000000000000000000 ) ) ;
#231 = CARTESIAN_POINT ( 'NONE',  ( -2.017912718678952733E-30, 1.854662432702592456, -5.779531731215173512E-16 ) ) ;
#232 = AXIS2_PLACEMENT_3D ( 'NONE', #92, #166, #206 ) ;
#233 = PRODUCT_DEFINITION_FORMATION_WITH_SPECIFIED_SOURCE ( 'ANY', '', #133, .NOT_KNOWN. ) ;
#234 = CC_DESIGN_PERSON_AND_ORGANIZATION_ASSIGNMENT ( #139, #155, ( #233 ) ) ;
#235 = DIRECTION ( 'NONE',  ( -3.491481338843133355E-15, -5.940144245081734813E-16, -1.000000000000000000 ) ) ;
#236 = DATE_AND_TIME ( #176, #42 ) ;
#237 = PERSON_AND_ORGANIZATION ( #70, #164 ) ;
#238 =( LENGTH_UNIT ( ) NAMED_UNIT ( * ) SI_UNIT ( .MILLI., .METRE. ) );
#239 = CARTESIAN_POINT ( 'NONE',  ( 2.444036937190193601E-13, -7.347880794884121511E-15, 70.00000000000000000 ) ) ;
#240 = ORIENTED_EDGE ( 'NONE', *, *, #49, .T. ) ;
#241 = CARTESIAN_POINT ( 'NONE',  ( 3.567678869557327222E-14, 1.998999999999998556, 10.21823840175368403 ) ) ;
#242 = ADVANCED_FACE ( 'NONE', ( #185, #110 ), #116, .T. ) ;
#243 = EDGE_LOOP ( 'NONE', ( #179 ) ) ;
ENDSEC;
END-ISO-10303-21;
