ISO-10303-21;
HEADER;
FILE_DESCRIPTION (( 'STEP AP203' ),
    '1' );
FILE_NAME ('321302.step',
    '2021-11-26T13:02:20',
    ( '' ),
    ( '' ),
    'SwSTEP 2.0',
    'SolidWorks 2019',
    '' );
FILE_SCHEMA (( 'CONFIG_CONTROL_DESIGN' ));
ENDSEC;

DATA;
#1 = EDGE_LOOP ( 'NONE', ( #191 ) ) ;
#2 = EDGE_CURVE ( 'NONE', #232, #232, #8, .T. ) ;
#3 = DIRECTION ( 'NONE',  ( -3.491481338843133355E-15, 1.049697256412017316E-16, -1.000000000000000000 ) ) ;
#4 = DIRECTION ( 'NONE',  ( 0.0000000000000000000, 1.000000000000000000, 0.0000000000000000000 ) ) ;
#5 = AXIS2_PLACEMENT_3D ( 'NONE', #107, #95, #169 ) ;
#6 = DIRECTION ( 'NONE',  ( 2.071509835094976747E-30, -1.000000000000000000, 5.933039973747504508E-16 ) ) ;
#7 = CLOSED_SHELL ( 'NONE', ( #98, #161, #17, #114, #79 ) ) ;
#8 = CIRCLE ( 'NONE', #157, 1.499999999999992673 ) ;
#9 = VERTEX_POINT ( 'NONE', #132 ) ;
#10 = PLANE ( 'NONE',  #57 ) ;
#11 = DIRECTION ( 'NONE',  ( 0.0000000000000000000, 1.000000000000000000, 0.0000000000000000000 ) ) ;
#12 = APPROVAL_PERSON_ORGANIZATION ( #112, #159, #190 ) ;
#13 = COORDINATED_UNIVERSAL_TIME_OFFSET ( 1, 0, .AHEAD. ) ;
#14 = PERSON_AND_ORGANIZATION ( #97, #234 ) ;
#15 = PERSON_AND_ORGANIZATION ( #97, #234 ) ;
#16 = EDGE_LOOP ( 'NONE', ( #74 ) ) ;
#17 = ADVANCED_FACE ( 'NONE', ( #175, #193 ), #207, .T. ) ;
#18 = VERTEX_POINT ( 'NONE', #71 ) ;
#19 = EDGE_LOOP ( 'NONE', ( #131 ) ) ;
#20 = CC_DESIGN_APPROVAL ( #177, ( #215 ) ) ;
#21 = APPROVAL_DATE_TIME ( #56, #42 ) ;
#22 = FACE_OUTER_BOUND ( 'NONE', #77, .T. ) ;
#23 = DIRECTION ( 'NONE',  ( 3.491481338843133355E-15, 5.933039973747504508E-16, 1.000000000000000000 ) ) ;
#24 = CC_DESIGN_PERSON_AND_ORGANIZATION_ASSIGNMENT ( #243, #90, ( #215 ) ) ;
#25 = FACE_OUTER_BOUND ( 'NONE', #204, .T. ) ;
#26 =( GEOMETRIC_REPRESENTATION_CONTEXT ( 3 ) GLOBAL_UNCERTAINTY_ASSIGNED_CONTEXT ( ( #64 ) ) GLOBAL_UNIT_ASSIGNED_CONTEXT ( ( #146, #148, #91 ) ) REPRESENTATION_CONTEXT ( 'NONE', 'WORKASPACE' ) );
#27 = FACE_OUTER_BOUND ( 'NONE', #154, .T. ) ;
#28 = DIRECTION ( 'NONE',  ( -3.491481338843133355E-15, -5.933039973747504508E-16, -1.000000000000000000 ) ) ;
#29 = APPLICATION_CONTEXT ( 'configuration controlled 3d designs of mechanical parts and assemblies' ) ;
#30 = DATE_AND_TIME ( #147, #181 ) ;
#31 = AXIS2_PLACEMENT_3D ( 'NONE', #160, #23, #166 ) ;
#32 = COORDINATED_UNIVERSAL_TIME_OFFSET ( 1, 0, .AHEAD. ) ;
#33 = EDGE_CURVE ( 'NONE', #139, #139, #87, .T. ) ;
#34 = DATE_TIME_ROLE ( 'creation_date' ) ;
#35 = EDGE_LOOP ( 'NONE', ( #228 ) ) ;
#36 = APPROVAL_STATUS ( 'not_yet_approved' ) ;
#37 = CC_DESIGN_PERSON_AND_ORGANIZATION_ASSIGNMENT ( #200, #186, ( #110 ) ) ;
#38 = DIRECTION ( 'NONE',  ( -3.491481338843133355E-15, 1.049697256412017316E-16, -1.000000000000000000 ) ) ;
#39 = PLANE ( 'NONE',  #205 ) ;
#40 = CARTESIAN_POINT ( 'NONE',  ( 3.869445280877825183E-14, 1.499999999999991562, 11.08253175473057617 ) ) ;
#41 = AXIS2_PLACEMENT_3D ( 'NONE', #60, #198, #99 ) ;
#42 = APPROVAL ( #120, 'UNSPECIFIED' ) ;
#43 = CARTESIAN_POINT ( 'NONE',  ( 3.570702581093605357E-14, 6.067659853227576765E-15, 10.22689865579152979 ) ) ;
#44 = VERTEX_POINT ( 'NONE', #121 ) ;
#45 = CC_DESIGN_PERSON_AND_ORGANIZATION_ASSIGNMENT ( #15, #225, ( #92 ) ) ;
#46 = DIRECTION ( 'NONE',  ( -3.491481338843133355E-15, 1.049697256412017316E-16, -1.000000000000000000 ) ) ;
#47 = CIRCLE ( 'NONE', #211, 1.499999999999997558 ) ;
#48 = CARTESIAN_POINT ( 'NONE',  ( 2.444036937190193601E-13, 1.199999999999990186, 70.00000000000000000 ) ) ;
#49 = MECHANICAL_CONTEXT ( 'NONE', #126, 'mechanical' ) ;
#50 = COORDINATED_UNIVERSAL_TIME_OFFSET ( 1, 0, .AHEAD. ) ;
#51 = ORIENTED_EDGE ( 'NONE', *, *, #2, .F. ) ;
#52 = CC_DESIGN_SECURITY_CLASSIFICATION ( #110, ( #63 ) ) ;
#53 = CARTESIAN_POINT ( 'NONE',  ( 0.0000000000000000000, 0.0000000000000000000, 0.0000000000000000000 ) ) ;
#54 = EDGE_CURVE ( 'NONE', #44, #44, #224, .T. ) ;
#55 = CARTESIAN_POINT ( 'NONE',  ( 3.570702581093604726E-14, -1.073514746058811373E-15, 10.22689865579152801 ) ) ;
#56 = DATE_AND_TIME ( #58, #117 ) ;
#57 = AXIS2_PLACEMENT_3D ( 'NONE', #83, #176, #6 ) ;
#58 = CALENDAR_DATE ( 2021, 26, 11 ) ;
#59 = ADVANCED_FACE ( 'NONE', ( #125, #22 ), #180, .T. ) ;
#60 = CARTESIAN_POINT ( 'NONE',  ( 3.570702581093605357E-14, 1.993999999999998884, 10.22689865579152979 ) ) ;
#61 = CARTESIAN_POINT ( 'NONE',  ( 3.642320338310804546E-30, 6.189359205211104459E-31, 1.043202006492078243E-15 ) ) ;
#62 = AXIS2_PLACEMENT_3D ( 'NONE', #184, #238, #197 ) ;
#63 = PRODUCT_DEFINITION_FORMATION_WITH_SPECIFIED_SOURCE ( 'ANY', '', #92, .NOT_KNOWN. ) ;
#64 = UNCERTAINTY_MEASURE_WITH_UNIT (LENGTH_MEASURE( 1.000000000000000082E-05 ), #146, 'distance_accuracy_value', 'NONE');
#65 = PLANE ( 'NONE',  #41 ) ;
#66 = CARTESIAN_POINT ( 'NONE',  ( 2.433562493173664138E-13, -7.316389877191761450E-15, 69.70000000000001705 ) ) ;
#67 = CARTESIAN_POINT ( 'NONE',  ( -2.010433751793718387E-30, 1.849662432702592785, -5.758111118703143434E-16 ) ) ;
#68 = CLOSED_SHELL ( 'NONE', ( #103, #59, #84, #122 ) ) ;
#69 = CC_DESIGN_PERSON_AND_ORGANIZATION_ASSIGNMENT ( #222, #206, ( #63 ) ) ;
#70 = CARTESIAN_POINT ( 'NONE',  ( 8.728703347107835360E-16, 1.993999999999998884, 0.2500000000000000000 ) ) ;
#71 = CARTESIAN_POINT ( 'NONE',  ( 2.433562493173664138E-13, 1.499999999999990230, 69.70000000000001705 ) ) ;
#72 = ORIENTED_EDGE ( 'NONE', *, *, #33, .T. ) ;
#73 = APPROVAL_ROLE ( '' ) ;
#74 = ORIENTED_EDGE ( 'NONE', *, *, #54, .T. ) ;
#75 = EDGE_LOOP ( 'NONE', ( #51 ) ) ;
#76 = LOCAL_TIME ( 14, 2, 20.00000000000000000, #32 ) ;
#77 = EDGE_LOOP ( 'NONE', ( #136 ) ) ;
#78 = DIRECTION ( 'NONE',  ( 3.664998382197393967E-31, 1.000000000000000000, 1.049697256412017316E-16 ) ) ;
#79 = ADVANCED_FACE ( 'NONE', ( #124 ), #65, .T. ) ;
#80 = SHAPE_DEFINITION_REPRESENTATION ( #241, #209 ) ;
#81 = CARTESIAN_POINT ( 'NONE',  ( 8.728703347107875789E-16, 1.483259993436883276E-16, 0.2500000000000012212 ) ) ;
#82 = AXIS2_PLACEMENT_3D ( 'NONE', #81, #236, #158 ) ;
#83 = CARTESIAN_POINT ( 'NONE',  ( 3.570702581093605357E-14, 6.067659853227576765E-15, 10.22689865579152979 ) ) ;
#84 = ADVANCED_FACE ( 'NONE', ( #88, #138 ), #185, .T. ) ;
#85 = DIRECTION ( 'NONE',  ( -2.071509835094976747E-30, 1.000000000000000000, -5.933039973747504508E-16 ) ) ;
#86 = DIRECTION ( 'NONE',  ( -3.491481338843133355E-15, 1.049697256412017316E-16, -1.000000000000000000 ) ) ;
#87 = CIRCLE ( 'NONE', #123, 1.993999999999999773 ) ;
#88 = FACE_OUTER_BOUND ( 'NONE', #174, .T. ) ;
#89 = CALENDAR_DATE ( 2021, 26, 11 ) ;
#90 = PERSON_AND_ORGANIZATION_ROLE ( 'creator' ) ;
#91 =( NAMED_UNIT ( * ) SI_UNIT ( $, .STERADIAN. ) SOLID_ANGLE_UNIT ( ) );
#92 = PRODUCT ( '321302', '321302', '', ( #49 ) ) ;
#93 = CALENDAR_DATE ( 2021, 26, 11 ) ;
#94 = ORIENTED_EDGE ( 'NONE', *, *, #54, .F. ) ;
#95 = DIRECTION ( 'NONE',  ( 0.0000000000000000000, 0.0000000000000000000, 1.000000000000000000 ) ) ;
#96 = CIRCLE ( 'NONE', #105, 1.993999999999992667 ) ;
#97 = PERSON ( 'UNSPECIFIED', 'UNSPECIFIED', 'UNSPECIFIED', ('UNSPECIFIED'), ('UNSPECIFIED'), ('UNSPECIFIED') ) ;
#98 = ADVANCED_FACE ( 'NONE', ( #27 ), #199, .T. ) ;
#99 = DIRECTION ( 'NONE',  ( 3.664998382197393967E-31, 1.000000000000000000, 1.049697256412017316E-16 ) ) ;
#100 = DIRECTION ( 'NONE',  ( -3.090760191594371696E-30, 1.000000000000000000, -8.699716529472484495E-16 ) ) ;
#101 = CARTESIAN_POINT ( 'NONE',  ( 2.433562493173664138E-13, -7.316389877191761450E-15, 69.70000000000001705 ) ) ;
#102 = DESIGN_CONTEXT ( 'detailed design', #29, 'design' ) ;
#103 = ADVANCED_FACE ( 'NONE', ( #162 ), #10, .T. ) ;
#104 = DIRECTION ( 'NONE',  ( -2.071509835094976397E-30, 1.000000000000000000, -5.933039973747503522E-16 ) ) ;
#105 = AXIS2_PLACEMENT_3D ( 'NONE', #43, #28, #100 ) ;
#106 = APPLICATION_PROTOCOL_DEFINITION ( 'international standard', 'config_control_design', 1994, #29 ) ;
#107 = CARTESIAN_POINT ( 'NONE',  ( 0.0000000000000000000, 0.0000000000000000000, 0.0000000000000000000 ) ) ;
#108 = DATE_AND_TIME ( #93, #189 ) ;
#109 = APPROVAL_STATUS ( 'not_yet_approved' ) ;
#110 = SECURITY_CLASSIFICATION ( '', '', #188 ) ;
#111 = CC_DESIGN_PERSON_AND_ORGANIZATION_ASSIGNMENT ( #151, #172, ( #63 ) ) ;
#112 = PERSON_AND_ORGANIZATION ( #97, #234 ) ;
#113 = PERSON_AND_ORGANIZATION ( #97, #234 ) ;
#114 = ADVANCED_FACE ( 'NONE', ( #237, #25 ), #143, .T. ) ;
#115 = AXIS2_PLACEMENT_3D ( 'NONE', #101, #217, #4 ) ;
#116 = ORIENTED_EDGE ( 'NONE', *, *, #183, .F. ) ;
#117 = LOCAL_TIME ( 14, 2, 20.00000000000000000, #155 ) ;
#118 = EDGE_LOOP ( 'NONE', ( #72 ) ) ;
#119 = DIRECTION ( 'NONE',  ( -3.491481338843133355E-15, -5.933039973747504508E-16, -1.000000000000000000 ) ) ;
#120 = APPROVAL_STATUS ( 'not_yet_approved' ) ;
#121 = CARTESIAN_POINT ( 'NONE',  ( -1.892735826383168144E-31, 1.849662432702592785, -5.421010862427522170E-17 ) ) ;
#122 = ADVANCED_FACE ( 'NONE', ( #212 ), #39, .T. ) ;
#123 = AXIS2_PLACEMENT_3D ( 'NONE', #55, #135, #208 ) ;
#124 = FACE_OUTER_BOUND ( 'NONE', #118, .T. ) ;
#125 = FACE_OUTER_BOUND ( 'NONE', #173, .T. ) ;
#126 = APPLICATION_CONTEXT ( 'configuration controlled 3d designs of mechanical parts and assemblies' ) ;
#127 = EDGE_CURVE ( 'NONE', #9, #9, #96, .T. ) ;
#128 = CIRCLE ( 'NONE', #178, 1.199999999999997513 ) ;
#129 = DATE_AND_TIME ( #167, #76 ) ;
#130 = PRODUCT_RELATED_PRODUCT_CATEGORY ( 'detail', '', ( #92 ) ) ;
#131 = ORIENTED_EDGE ( 'NONE', *, *, #168, .T. ) ;
#132 = CARTESIAN_POINT ( 'NONE',  ( 3.570702581093604726E-14, 1.993999999999998884, 10.22689865579152801 ) ) ;
#133 = DIRECTION ( 'NONE',  ( 0.0000000000000000000, 1.000000000000000000, 0.0000000000000000000 ) ) ;
#134 = MANIFOLD_SOLID_BREP ( 'Corps-Déplacer/Copier1[1]', #7 ) ;
#135 = DIRECTION ( 'NONE',  ( -3.491481338843133355E-15, 1.049697256412017316E-16, -1.000000000000000000 ) ) ;
#136 = ORIENTED_EDGE ( 'NONE', *, *, #233, .F. ) ;
#137 = MANIFOLD_SOLID_BREP ( 'Corps-Déplacer/Copier1[2]', #68 ) ;
#138 = FACE_BOUND ( 'NONE', #156, .T. ) ;
#139 = VERTEX_POINT ( 'NONE', #213 ) ;
#140 = AXIS2_PLACEMENT_3D ( 'NONE', #214, #230, #85 ) ;
#141 = APPROVAL_PERSON_ORGANIZATION ( #113, #42, #229 ) ;
#142 = DIRECTION ( 'NONE',  ( 0.0000000000000000000, 1.000000000000000000, 0.0000000000000000000 ) ) ;
#143 = CONICAL_SURFACE ( 'NONE', #201, 1.993999999999999773, 0.5235987755982937086 ) ;
#144 = DIRECTION ( 'NONE',  ( 0.0000000000000000000, 1.000000000000000000, 0.0000000000000000000 ) ) ;
#145 = FACE_BOUND ( 'NONE', #242, .T. ) ;
#146 =( LENGTH_UNIT ( ) NAMED_UNIT ( * ) SI_UNIT ( .MILLI., .METRE. ) );
#147 = CALENDAR_DATE ( 2021, 26, 11 ) ;
#148 =( NAMED_UNIT ( * ) PLANE_ANGLE_UNIT ( ) SI_UNIT ( $, .RADIAN. ) );
#149 = ORIENTED_EDGE ( 'NONE', *, *, #183, .T. ) ;
#150 = APPROVAL_DATE_TIME ( #108, #159 ) ;
#151 = PERSON_AND_ORGANIZATION ( #97, #234 ) ;
#152 = APPROVAL_PERSON_ORGANIZATION ( #14, #177, #73 ) ;
#153 = ORIENTED_EDGE ( 'NONE', *, *, #127, .T. ) ;
#154 = EDGE_LOOP ( 'NONE', ( #116 ) ) ;
#155 = COORDINATED_UNIVERSAL_TIME_OFFSET ( 1, 0, .AHEAD. ) ;
#156 = EDGE_LOOP ( 'NONE', ( #94 ) ) ;
#157 = AXIS2_PLACEMENT_3D ( 'NONE', #227, #38, #133 ) ;
#158 = DIRECTION ( 'NONE',  ( -2.028311375733800130E-30, 1.000000000000000000, -5.981055114012314293E-16 ) ) ;
#159 = APPROVAL ( #109, 'UNSPECIFIED' ) ;
#160 = CARTESIAN_POINT ( 'NONE',  ( 3.642320338310804546E-30, 6.189359205211104459E-31, 1.043202006492078243E-15 ) ) ;
#161 = ADVANCED_FACE ( 'NONE', ( #145, #194 ), #219, .T. ) ;
#162 = FACE_OUTER_BOUND ( 'NONE', #1, .T. ) ;
#163 = DIRECTION ( 'NONE',  ( -3.491481338843133355E-15, 1.049697256412017316E-16, -1.000000000000000000 ) ) ;
#164 = AXIS2_PLACEMENT_3D ( 'NONE', #53, #3, #78 ) ;
#165 = CIRCLE ( 'NONE', #82, 1.993999999999998884 ) ;
#166 = DIRECTION ( 'NONE',  ( 2.071509835094976397E-30, -1.000000000000000000, 5.933039973747503522E-16 ) ) ;
#167 = CALENDAR_DATE ( 2021, 26, 11 ) ;
#168 = EDGE_CURVE ( 'NONE', #18, #18, #47, .T. ) ;
#169 = DIRECTION ( 'NONE',  ( 1.000000000000000000, 0.0000000000000000000, 0.0000000000000000000 ) ) ;
#170 = CC_DESIGN_APPROVAL ( #159, ( #63 ) ) ;
#171 = ORIENTED_EDGE ( 'NONE', *, *, #33, .F. ) ;
#172 = PERSON_AND_ORGANIZATION_ROLE ( 'creator' ) ;
#173 = EDGE_LOOP ( 'NONE', ( #153 ) ) ;
#174 = EDGE_LOOP ( 'NONE', ( #223 ) ) ;
#175 = FACE_OUTER_BOUND ( 'NONE', #19, .T. ) ;
#176 = DIRECTION ( 'NONE',  ( 3.491481338843133355E-15, 5.933039973747504508E-16, 1.000000000000000000 ) ) ;
#177 = APPROVAL ( #36, 'UNSPECIFIED' ) ;
#178 = AXIS2_PLACEMENT_3D ( 'NONE', #179, #46, #142 ) ;
#179 = CARTESIAN_POINT ( 'NONE',  ( 2.444036937190193601E-13, -7.347880794884121511E-15, 70.00000000000000000 ) ) ;
#180 = CYLINDRICAL_SURFACE ( 'NONE', #140, 1.993999999999995776 ) ;
#181 = LOCAL_TIME ( 14, 2, 20.00000000000000000, #203 ) ;
#182 = CARTESIAN_POINT ( 'NONE',  ( 3.570702581093604726E-14, -1.073514746058811373E-15, 10.22689865579152801 ) ) ;
#183 = EDGE_CURVE ( 'NONE', #218, #218, #128, .T. ) ;
#184 = CARTESIAN_POINT ( 'NONE',  ( 2.444036937190193601E-13, -7.347880794884121511E-15, 70.00000000000000000 ) ) ;
#185 = CONICAL_SURFACE ( 'NONE', #31, 1.849662432702592785, 0.5235987755982975944 ) ;
#186 = PERSON_AND_ORGANIZATION_ROLE ( 'classification_officer' ) ;
#187 = APPLICATION_PROTOCOL_DEFINITION ( 'international standard', 'config_control_design', 1994, #126 ) ;
#188 = SECURITY_CLASSIFICATION_LEVEL ( 'unclassified' ) ;
#189 = LOCAL_TIME ( 14, 2, 20.00000000000000000, #50 ) ;
#190 = APPROVAL_ROLE ( '' ) ;
#191 = ORIENTED_EDGE ( 'NONE', *, *, #127, .F. ) ;
#192 = ORIENTED_EDGE ( 'NONE', *, *, #2, .T. ) ;
#193 = FACE_OUTER_BOUND ( 'NONE', #75, .T. ) ;
#194 = FACE_OUTER_BOUND ( 'NONE', #35, .T. ) ;
#195 = CC_DESIGN_DATE_AND_TIME_ASSIGNMENT ( #239, #231, ( #110 ) ) ;
#196 = DIRECTION ( 'NONE',  ( -2.071509835094976747E-30, 1.000000000000000000, -5.933039973747504508E-16 ) ) ;
#197 = DIRECTION ( 'NONE',  ( -3.664998382197393967E-31, -1.000000000000000000, -1.049697256412017316E-16 ) ) ;
#198 = DIRECTION ( 'NONE',  ( -3.491481338843133355E-15, 1.049697256412017316E-16, -1.000000000000000000 ) ) ;
#199 = PLANE ( 'NONE',  #62 ) ;
#200 = PERSON_AND_ORGANIZATION ( #97, #234 ) ;
#201 = AXIS2_PLACEMENT_3D ( 'NONE', #182, #86, #11 ) ;
#202 = CC_DESIGN_APPROVAL ( #42, ( #110 ) ) ;
#203 = COORDINATED_UNIVERSAL_TIME_OFFSET ( 1, 0, .AHEAD. ) ;
#204 = EDGE_LOOP ( 'NONE', ( #171 ) ) ;
#205 = AXIS2_PLACEMENT_3D ( 'NONE', #67, #216, #196 ) ;
#206 = PERSON_AND_ORGANIZATION_ROLE ( 'design_supplier' ) ;
#207 = CYLINDRICAL_SURFACE ( 'NONE', #164, 1.499999999999995337 ) ;
#208 = DIRECTION ( 'NONE',  ( 0.0000000000000000000, 1.000000000000000000, 0.0000000000000000000 ) ) ;
#209 = ADVANCED_BREP_SHAPE_REPRESENTATION ( '321302', ( #134, #137, #5 ), #26 ) ;
#210 = AXIS2_PLACEMENT_3D ( 'NONE', #61, #119, #104 ) ;
#211 = AXIS2_PLACEMENT_3D ( 'NONE', #66, #163, #144 ) ;
#212 = FACE_OUTER_BOUND ( 'NONE', #16, .T. ) ;
#213 = CARTESIAN_POINT ( 'NONE',  ( 3.570702581093604726E-14, 1.993999999999998884, 10.22689865579152801 ) ) ;
#214 = CARTESIAN_POINT ( 'NONE',  ( 0.0000000000000000000, 0.0000000000000000000, 0.0000000000000000000 ) ) ;
#215 = PRODUCT_DEFINITION ( 'UNKNOWN', '', #63, #102 ) ;
#216 = DIRECTION ( 'NONE',  ( -3.491481338843133355E-15, -5.933039973747504508E-16, -1.000000000000000000 ) ) ;
#217 = DIRECTION ( 'NONE',  ( -3.491481338843133355E-15, 1.049697256412017316E-16, -1.000000000000000000 ) ) ;
#218 = VERTEX_POINT ( 'NONE', #48 ) ;
#219 = CONICAL_SURFACE ( 'NONE', #115, 1.499999999999997558, 0.7853981633974573828 ) ;
#220 = LOCAL_TIME ( 14, 2, 20.00000000000000000, #13 ) ;
#221 = APPROVAL_DATE_TIME ( #30, #177 ) ;
#222 = PERSON_AND_ORGANIZATION ( #97, #234 ) ;
#223 = ORIENTED_EDGE ( 'NONE', *, *, #233, .T. ) ;
#224 = CIRCLE ( 'NONE', #210, 1.849662432702592785 ) ;
#225 = PERSON_AND_ORGANIZATION_ROLE ( 'design_owner' ) ;
#226 = EDGE_LOOP ( 'NONE', ( #192 ) ) ;
#227 = CARTESIAN_POINT ( 'NONE',  ( 3.869445280877825183E-14, -1.163330317703974635E-15, 11.08253175473057617 ) ) ;
#228 = ORIENTED_EDGE ( 'NONE', *, *, #168, .F. ) ;
#229 = APPROVAL_ROLE ( '' ) ;
#230 = DIRECTION ( 'NONE',  ( -3.491481338843133355E-15, -5.933039973747504508E-16, -1.000000000000000000 ) ) ;
#231 = DATE_TIME_ROLE ( 'classification_date' ) ;
#232 = VERTEX_POINT ( 'NONE', #40 ) ;
#233 = EDGE_CURVE ( 'NONE', #240, #240, #165, .T. ) ;
#234 = ORGANIZATION ( 'UNSPECIFIED', 'UNSPECIFIED', '' ) ;
#235 = CC_DESIGN_DATE_AND_TIME_ASSIGNMENT ( #129, #34, ( #215 ) ) ;
#236 = DIRECTION ( 'NONE',  ( -3.491481338843133355E-15, -5.933039973747504508E-16, -1.000000000000000000 ) ) ;
#237 = FACE_BOUND ( 'NONE', #226, .T. ) ;
#238 = DIRECTION ( 'NONE',  ( 3.491481338843133355E-15, -1.049697256412017316E-16, 1.000000000000000000 ) ) ;
#239 = DATE_AND_TIME ( #89, #220 ) ;
#240 = VERTEX_POINT ( 'NONE', #70 ) ;
#241 = PRODUCT_DEFINITION_SHAPE ( 'NONE', 'NONE',  #215 ) ;
#242 = EDGE_LOOP ( 'NONE', ( #149 ) ) ;
#243 = PERSON_AND_ORGANIZATION ( #97, #234 ) ;
ENDSEC;
END-ISO-10303-21;
