ISO-10303-21;
HEADER;
FILE_DESCRIPTION (( 'STEP AP203' ),
    '1' );
FILE_NAME ('321301.step',
    '2021-11-26T13:02:19',
    ( '' ),
    ( '' ),
    'SwSTEP 2.0',
    'SolidWorks 2019',
    '' );
FILE_SCHEMA (( 'CONFIG_CONTROL_DESIGN' ));
ENDSEC;

DATA;
#1 = CARTESIAN_POINT ( 'NONE',  ( 2.444036937190193601E-13, 1.199999999999990186, 70.00000000000000000 ) ) ;
#2 = AXIS2_PLACEMENT_3D ( 'NONE', #199, #54, #108 ) ;
#3 = EDGE_CURVE ( 'NONE', #59, #59, #23, .T. ) ;
#4 = PRODUCT ( '321301', '321301', '', ( #241 ) ) ;
#5 = ORIENTED_EDGE ( 'NONE', *, *, #172, .T. ) ;
#6 = PERSON_AND_ORGANIZATION_ROLE ( 'creator' ) ;
#7 = DIRECTION ( 'NONE',  ( 2.069033589396429582E-30, -1.000000000000000000, 5.925947724188560513E-16 ) ) ;
#8 = CLOSED_SHELL ( 'NONE', ( #129, #96, #21, #79, #68 ) ) ;
#9 = ORIENTED_EDGE ( 'NONE', *, *, #197, .T. ) ;
#10 = DIRECTION ( 'NONE',  ( -2.069033589396429582E-30, 1.000000000000000000, -5.925947724188560513E-16 ) ) ;
#11 = ORIENTED_EDGE ( 'NONE', *, *, #3, .T. ) ;
#12 = AXIS2_PLACEMENT_3D ( 'NONE', #113, #167, #131 ) ;
#13 = DIRECTION ( 'NONE',  ( 1.000000000000000000, 0.0000000000000000000, 0.0000000000000000000 ) ) ;
#14 = CALENDAR_DATE ( 2021, 26, 11 ) ;
#15 = VERTEX_POINT ( 'NONE', #93 ) ;
#16 = PERSON_AND_ORGANIZATION ( #136, #220 ) ;
#17 = CIRCLE ( 'NONE', #2, 1.988999999999999879 ) ;
#18 = APPROVAL_ROLE ( '' ) ;
#19 = ORIENTED_EDGE ( 'NONE', *, *, #125, .T. ) ;
#20 = APPROVAL ( #235, 'UNSPECIFIED' ) ;
#21 = ADVANCED_FACE ( 'NONE', ( #69, #156 ), #217, .T. ) ;
#22 = EDGE_LOOP ( 'NONE', ( #190 ) ) ;
#23 = CIRCLE ( 'NONE', #194, 1.844662432702592891 ) ;
#24 = APPROVAL_STATUS ( 'not_yet_approved' ) ;
#25 = FACE_OUTER_BOUND ( 'NONE', #176, .T. ) ;
#26 = PERSON_AND_ORGANIZATION ( #136, #220 ) ;
#27 = FACE_OUTER_BOUND ( 'NONE', #192, .T. ) ;
#28 = ADVANCED_FACE ( 'NONE', ( #163, #109 ), #150, .T. ) ;
#29 = CONICAL_SURFACE ( 'NONE', #65, 1.988999999999999879, 0.5235987755982933756 ) ;
#30 = CC_DESIGN_APPROVAL ( #20, ( #226 ) ) ;
#31 = DIRECTION ( 'NONE',  ( -3.491481338843133355E-15, -5.925947724188560513E-16, -1.000000000000000000 ) ) ;
#32 = DIRECTION ( 'NONE',  ( 0.0000000000000000000, 1.000000000000000000, 0.0000000000000000000 ) ) ;
#33 = CC_DESIGN_DATE_AND_TIME_ASSIGNMENT ( #243, #75, ( #37 ) ) ;
#34 = DIRECTION ( 'NONE',  ( -3.491481338843133355E-15, 1.049697256412017316E-16, -1.000000000000000000 ) ) ;
#35 = DIRECTION ( 'NONE',  ( -3.491481338843133355E-15, 1.049697256412017316E-16, -1.000000000000000000 ) ) ;
#36 = CARTESIAN_POINT ( 'NONE',  ( 3.573726292629882230E-14, 1.988999999999998991, 10.23555890982937200 ) ) ;
#37 = PRODUCT_DEFINITION ( 'UNKNOWN', '', #142, #221 ) ;
#38 = CIRCLE ( 'NONE', #98, 1.988999999999992996 ) ;
#39 = PERSON_AND_ORGANIZATION_ROLE ( 'design_owner' ) ;
#40 = CALENDAR_DATE ( 2021, 26, 11 ) ;
#41 = CC_DESIGN_PERSON_AND_ORGANIZATION_ASSIGNMENT ( #121, #6, ( #142 ) ) ;
#42 = EDGE_LOOP ( 'NONE', ( #143 ) ) ;
#43 = CC_DESIGN_PERSON_AND_ORGANIZATION_ASSIGNMENT ( #230, #47, ( #226 ) ) ;
#44 = EDGE_LOOP ( 'NONE', ( #9 ) ) ;
#45 = AXIS2_PLACEMENT_3D ( 'NONE', #49, #87, #67 ) ;
#46 = CARTESIAN_POINT ( 'NONE',  ( 3.573726292629881599E-14, 6.065538702750129832E-15, 10.23555890982937022 ) ) ;
#47 = PERSON_AND_ORGANIZATION_ROLE ( 'classification_officer' ) ;
#48 = ADVANCED_FACE ( 'NONE', ( #222 ), #178, .T. ) ;
#49 = CARTESIAN_POINT ( 'NONE',  ( 0.0000000000000000000, 0.0000000000000000000, 0.0000000000000000000 ) ) ;
#50 = APPROVAL_ROLE ( '' ) ;
#51 = DIRECTION ( 'NONE',  ( -2.069033589396429582E-30, 1.000000000000000000, -5.925947724188560513E-16 ) ) ;
#52 = UNCERTAINTY_MEASURE_WITH_UNIT (LENGTH_MEASURE( 1.000000000000000082E-05 ), #169, 'distance_accuracy_value', 'NONE');
#53 = CC_DESIGN_APPROVAL ( #153, ( #37 ) ) ;
#54 = DIRECTION ( 'NONE',  ( -3.491481338843133355E-15, 1.049697256412017316E-16, -1.000000000000000000 ) ) ;
#55 = EDGE_LOOP ( 'NONE', ( #19 ) ) ;
#56 = DATE_AND_TIME ( #148, #133 ) ;
#57 = AXIS2_PLACEMENT_3D ( 'NONE', #171, #189, #13 ) ;
#58 = CARTESIAN_POINT ( 'NONE',  ( 3.869445280877825183E-14, 1.499999999999991562, 11.08253175473057617 ) ) ;
#59 = VERTEX_POINT ( 'NONE', #147 ) ;
#60 = ADVANCED_FACE ( 'NONE', ( #126, #237 ), #120, .T. ) ;
#61 = PERSON_AND_ORGANIZATION ( #136, #220 ) ;
#62 = DIRECTION ( 'NONE',  ( 0.0000000000000000000, 1.000000000000000000, 0.0000000000000000000 ) ) ;
#63 = APPROVAL_PERSON_ORGANIZATION ( #116, #153, #168 ) ;
#64 = EDGE_LOOP ( 'NONE', ( #209 ) ) ;
#65 = AXIS2_PLACEMENT_3D ( 'NONE', #234, #122, #32 ) ;
#66 = ORIENTED_EDGE ( 'NONE', *, *, #125, .F. ) ;
#67 = DIRECTION ( 'NONE',  ( -2.069033589396429582E-30, 1.000000000000000000, -5.925947724188561499E-16 ) ) ;
#68 = ADVANCED_FACE ( 'NONE', ( #239 ), #127, .T. ) ;
#69 = FACE_OUTER_BOUND ( 'NONE', #44, .T. ) ;
#70 = SECURITY_CLASSIFICATION_LEVEL ( 'unclassified' ) ;
#71 = FACE_BOUND ( 'NONE', #42, .T. ) ;
#72 = CARTESIAN_POINT ( 'NONE',  ( 2.433562493173664138E-13, -7.316389877191761450E-15, 69.70000000000001705 ) ) ;
#73 = CIRCLE ( 'NONE', #80, 1.499999999999997558 ) ;
#74 = DIRECTION ( 'NONE',  ( 2.069033589396429582E-30, -1.000000000000000000, 5.925947724188560513E-16 ) ) ;
#75 = DATE_TIME_ROLE ( 'creation_date' ) ;
#76 = PRODUCT_RELATED_PRODUCT_CATEGORY ( 'detail', '', ( #4 ) ) ;
#77 = LOCAL_TIME ( 14, 2, 19.00000000000000000, #229 ) ;
#78 = CARTESIAN_POINT ( 'NONE',  ( 2.444036937190193601E-13, -7.347880794884121511E-15, 70.00000000000000000 ) ) ;
#79 = ADVANCED_FACE ( 'NONE', ( #71, #219 ), #29, .T. ) ;
#80 = AXIS2_PLACEMENT_3D ( 'NONE', #228, #112, #62 ) ;
#81 = EDGE_LOOP ( 'NONE', ( #165 ) ) ;
#82 = EDGE_CURVE ( 'NONE', #132, #132, #135, .T. ) ;
#83 = AXIS2_PLACEMENT_3D ( 'NONE', #78, #35, #227 ) ;
#84 = CALENDAR_DATE ( 2021, 26, 11 ) ;
#85 = FACE_BOUND ( 'NONE', #101, .T. ) ;
#86 = APPROVAL_DATE_TIME ( #161, #225 ) ;
#87 = DIRECTION ( 'NONE',  ( -3.491481338843133355E-15, -5.925947724188560513E-16, -1.000000000000000000 ) ) ;
#88 = LOCAL_TIME ( 14, 2, 19.00000000000000000, #97 ) ;
#89 = DIRECTION ( 'NONE',  ( -3.491481338843133355E-15, -5.925947724188560513E-16, -1.000000000000000000 ) ) ;
#90 = PLANE ( 'NONE',  #201 ) ;
#91 = AXIS2_PLACEMENT_3D ( 'NONE', #179, #34, #218 ) ;
#92 = CIRCLE ( 'NONE', #12, 1.499999999999992673 ) ;
#93 = CARTESIAN_POINT ( 'NONE',  ( 2.433562493173664138E-13, 1.499999999999990230, 69.70000000000001705 ) ) ;
#94 = CONICAL_SURFACE ( 'NONE', #232, 1.499999999999997558, 0.7853981633974573828 ) ;
#95 = CARTESIAN_POINT ( 'NONE',  ( 3.573726292629882230E-14, 1.988999999999998991, 10.23555890982937200 ) ) ;
#96 = ADVANCED_FACE ( 'NONE', ( #85, #138 ), #94, .T. ) ;
#97 = COORDINATED_UNIVERSAL_TIME_OFFSET ( 1, 0, .AHEAD. ) ;
#98 = AXIS2_PLACEMENT_3D ( 'NONE', #105, #89, #149 ) ;
#99 = APPROVAL_DATE_TIME ( #104, #20 ) ;
#100 = EDGE_LOOP ( 'NONE', ( #193 ) ) ;
#101 = EDGE_LOOP ( 'NONE', ( #5 ) ) ;
#102 = APPROVAL_PERSON_ORGANIZATION ( #208, #20, #18 ) ;
#103 = DIRECTION ( 'NONE',  ( -3.491481338843133355E-15, -5.925947724188560513E-16, -1.000000000000000000 ) ) ;
#104 = DATE_AND_TIME ( #233, #77 ) ;
#105 = CARTESIAN_POINT ( 'NONE',  ( 3.573726292629882861E-14, 6.065538702750132199E-15, 10.23555890982937377 ) ) ;
#106 = AXIS2_PLACEMENT_3D ( 'NONE', #123, #238, #7 ) ;
#107 = PLANE ( 'NONE',  #191 ) ;
#108 = DIRECTION ( 'NONE',  ( 0.0000000000000000000, 1.000000000000000000, 0.0000000000000000000 ) ) ;
#109 = FACE_BOUND ( 'NONE', #211, .T. ) ;
#110 = APPROVAL_DATE_TIME ( #56, #153 ) ;
#111 = CC_DESIGN_PERSON_AND_ORGANIZATION_ASSIGNMENT ( #61, #204, ( #37 ) ) ;
#112 = DIRECTION ( 'NONE',  ( -3.491481338843133355E-15, 1.049697256412017316E-16, -1.000000000000000000 ) ) ;
#113 = CARTESIAN_POINT ( 'NONE',  ( 3.869445280877825183E-14, -1.163330317703974635E-15, 11.08253175473057617 ) ) ;
#114 =( GEOMETRIC_REPRESENTATION_CONTEXT ( 3 ) GLOBAL_UNCERTAINTY_ASSIGNED_CONTEXT ( ( #52 ) ) GLOBAL_UNIT_ASSIGNED_CONTEXT ( ( #169, #207, #130 ) ) REPRESENTATION_CONTEXT ( 'NONE', 'WORKASPACE' ) );
#115 = VERTEX_POINT ( 'NONE', #36 ) ;
#116 = PERSON_AND_ORGANIZATION ( #136, #220 ) ;
#117 = ORIENTED_EDGE ( 'NONE', *, *, #166, .F. ) ;
#118 = ADVANCED_BREP_SHAPE_REPRESENTATION ( '321301', ( #128, #212, #57 ), #114 ) ;
#119 = EDGE_LOOP ( 'NONE', ( #66 ) ) ;
#120 = CYLINDRICAL_SURFACE ( 'NONE', #45, 1.988999999999995882 ) ;
#121 = PERSON_AND_ORGANIZATION ( #136, #220 ) ;
#122 = DIRECTION ( 'NONE',  ( -3.491481338843133355E-15, 1.049697256412017316E-16, -1.000000000000000000 ) ) ;
#123 = CARTESIAN_POINT ( 'NONE',  ( 3.627394951721078482E-30, 6.156628311239091609E-31, 1.038927205872731229E-15 ) ) ;
#124 = AXIS2_PLACEMENT_3D ( 'NONE', #200, #31, #182 ) ;
#125 = EDGE_CURVE ( 'NONE', #115, #115, #17, .T. ) ;
#126 = FACE_OUTER_BOUND ( 'NONE', #137, .T. ) ;
#127 = PLANE ( 'NONE',  #183 ) ;
#128 = MANIFOLD_SOLID_BREP ( 'Corps-Déplacer/Copier1[1]', #8 ) ;
#129 = ADVANCED_FACE ( 'NONE', ( #27 ), #107, .T. ) ;
#130 =( NAMED_UNIT ( * ) SI_UNIT ( $, .STERADIAN. ) SOLID_ANGLE_UNIT ( ) );
#131 = DIRECTION ( 'NONE',  ( 0.0000000000000000000, 1.000000000000000000, 0.0000000000000000000 ) ) ;
#132 = VERTEX_POINT ( 'NONE', #224 ) ;
#133 = LOCAL_TIME ( 14, 2, 19.00000000000000000, #170 ) ;
#134 = EDGE_LOOP ( 'NONE', ( #117 ) ) ;
#135 = CIRCLE ( 'NONE', #124, 1.988999999999998991 ) ;
#136 = PERSON ( 'UNSPECIFIED', 'UNSPECIFIED', 'UNSPECIFIED', ('UNSPECIFIED'), ('UNSPECIFIED'), ('UNSPECIFIED') ) ;
#137 = EDGE_LOOP ( 'NONE', ( #214 ) ) ;
#138 = FACE_OUTER_BOUND ( 'NONE', #81, .T. ) ;
#139 = DIRECTION ( 'NONE',  ( -3.491481338843133355E-15, 1.049697256412017316E-16, -1.000000000000000000 ) ) ;
#140 = CARTESIAN_POINT ( 'NONE',  ( 3.627394951721078482E-30, 6.156628311239091609E-31, 1.038927205872731229E-15 ) ) ;
#141 = DIRECTION ( 'NONE',  ( -3.491481338843133355E-15, -5.925947724188560513E-16, -1.000000000000000000 ) ) ;
#142 = PRODUCT_DEFINITION_FORMATION_WITH_SPECIFIED_SOURCE ( 'ANY', '', #4, .NOT_KNOWN. ) ;
#143 = ORIENTED_EDGE ( 'NONE', *, *, #206, .T. ) ;
#144 = APPROVAL_STATUS ( 'not_yet_approved' ) ;
#145 = APPLICATION_CONTEXT ( 'configuration controlled 3d designs of mechanical parts and assemblies' ) ;
#146 = APPLICATION_PROTOCOL_DEFINITION ( 'international standard', 'config_control_design', 1994, #160 ) ;
#147 = CARTESIAN_POINT ( 'NONE',  ( -1.892735826383168144E-31, 1.844662432702592891, -5.421010862427522170E-17 ) ) ;
#148 = CALENDAR_DATE ( 2021, 26, 11 ) ;
#149 = DIRECTION ( 'NONE',  ( -3.098529825057404089E-30, 1.000000000000000000, -8.721586103453058259E-16 ) ) ;
#150 = CONICAL_SURFACE ( 'NONE', #106, 1.844662432702592891, 0.5235987755982975944 ) ;
#151 = COORDINATED_UNIVERSAL_TIME_OFFSET ( 1, 0, .AHEAD. ) ;
#152 = ADVANCED_FACE ( 'NONE', ( #25 ), #90, .T. ) ;
#153 = APPROVAL ( #144, 'UNSPECIFIED' ) ;
#154 = ORIENTED_EDGE ( 'NONE', *, *, #172, .F. ) ;
#155 = CC_DESIGN_SECURITY_CLASSIFICATION ( #226, ( #142 ) ) ;
#156 = FACE_OUTER_BOUND ( 'NONE', #100, .T. ) ;
#157 = PERSON_AND_ORGANIZATION_ROLE ( 'design_supplier' ) ;
#158 = CLOSED_SHELL ( 'NONE', ( #48, #60, #28, #152 ) ) ;
#159 = DIRECTION ( 'NONE',  ( 0.0000000000000000000, 1.000000000000000000, 0.0000000000000000000 ) ) ;
#160 = APPLICATION_CONTEXT ( 'configuration controlled 3d designs of mechanical parts and assemblies' ) ;
#161 = DATE_AND_TIME ( #40, #88 ) ;
#162 = CC_DESIGN_PERSON_AND_ORGANIZATION_ASSIGNMENT ( #216, #157, ( #142 ) ) ;
#163 = FACE_OUTER_BOUND ( 'NONE', #64, .T. ) ;
#164 = DIRECTION ( 'NONE',  ( 3.491481338843133355E-15, 5.925947724188560513E-16, 1.000000000000000000 ) ) ;
#165 = ORIENTED_EDGE ( 'NONE', *, *, #197, .F. ) ;
#166 = EDGE_CURVE ( 'NONE', #185, #185, #38, .T. ) ;
#167 = DIRECTION ( 'NONE',  ( -3.491481338843133355E-15, 1.049697256412017316E-16, -1.000000000000000000 ) ) ;
#168 = APPROVAL_ROLE ( '' ) ;
#169 =( LENGTH_UNIT ( ) NAMED_UNIT ( * ) SI_UNIT ( .MILLI., .METRE. ) );
#170 = COORDINATED_UNIVERSAL_TIME_OFFSET ( 1, 0, .AHEAD. ) ;
#171 = CARTESIAN_POINT ( 'NONE',  ( 0.0000000000000000000, 0.0000000000000000000, 0.0000000000000000000 ) ) ;
#172 = EDGE_CURVE ( 'NONE', #223, #223, #188, .T. ) ;
#173 = CC_DESIGN_APPROVAL ( #225, ( #142 ) ) ;
#174 = DATE_AND_TIME ( #84, #195 ) ;
#175 = SHAPE_DEFINITION_REPRESENTATION ( #210, #118 ) ;
#176 = EDGE_LOOP ( 'NONE', ( #11 ) ) ;
#177 = APPROVAL_PERSON_ORGANIZATION ( #26, #225, #50 ) ;
#178 = PLANE ( 'NONE',  #213 ) ;
#179 = CARTESIAN_POINT ( 'NONE',  ( 0.0000000000000000000, 0.0000000000000000000, 0.0000000000000000000 ) ) ;
#180 = CARTESIAN_POINT ( 'NONE',  ( 2.444036937190193601E-13, -7.347880794884121511E-15, 70.00000000000000000 ) ) ;
#181 = DIRECTION ( 'NONE',  ( -3.664998382197393967E-31, -1.000000000000000000, -1.049697256412017316E-16 ) ) ;
#182 = DIRECTION ( 'NONE',  ( -2.033410197693915051E-30, 1.000000000000000000, -5.996090446123959249E-16 ) ) ;
#183 = AXIS2_PLACEMENT_3D ( 'NONE', #203, #139, #202 ) ;
#184 = COORDINATED_UNIVERSAL_TIME_OFFSET ( 1, 0, .AHEAD. ) ;
#185 = VERTEX_POINT ( 'NONE', #95 ) ;
#186 = CC_DESIGN_DATE_AND_TIME_ASSIGNMENT ( #174, #198, ( #226 ) ) ;
#187 = VERTEX_POINT ( 'NONE', #58 ) ;
#188 = CIRCLE ( 'NONE', #83, 1.199999999999997513 ) ;
#189 = DIRECTION ( 'NONE',  ( 0.0000000000000000000, 0.0000000000000000000, 1.000000000000000000 ) ) ;
#190 = ORIENTED_EDGE ( 'NONE', *, *, #82, .F. ) ;
#191 = AXIS2_PLACEMENT_3D ( 'NONE', #180, #196, #181 ) ;
#192 = EDGE_LOOP ( 'NONE', ( #154 ) ) ;
#193 = ORIENTED_EDGE ( 'NONE', *, *, #206, .F. ) ;
#194 = AXIS2_PLACEMENT_3D ( 'NONE', #140, #103, #51 ) ;
#195 = LOCAL_TIME ( 14, 2, 19.00000000000000000, #151 ) ;
#196 = DIRECTION ( 'NONE',  ( 3.491481338843133355E-15, -1.049697256412017316E-16, 1.000000000000000000 ) ) ;
#197 = EDGE_CURVE ( 'NONE', #15, #15, #73, .T. ) ;
#198 = DATE_TIME_ROLE ( 'classification_date' ) ;
#199 = CARTESIAN_POINT ( 'NONE',  ( 3.573726292629882230E-14, -1.074423810549147097E-15, 10.23555890982937200 ) ) ;
#200 = CARTESIAN_POINT ( 'NONE',  ( 8.728703347107875789E-16, 1.481486931047147277E-16, 0.2500000000000012212 ) ) ;
#201 = AXIS2_PLACEMENT_3D ( 'NONE', #236, #141, #10 ) ;
#202 = DIRECTION ( 'NONE',  ( 3.664998382197393967E-31, 1.000000000000000000, 1.049697256412017316E-16 ) ) ;
#203 = CARTESIAN_POINT ( 'NONE',  ( 3.573726292629881599E-14, 1.988999999999998991, 10.23555890982937022 ) ) ;
#204 = PERSON_AND_ORGANIZATION_ROLE ( 'creator' ) ;
#205 = APPLICATION_PROTOCOL_DEFINITION ( 'international standard', 'config_control_design', 1994, #145 ) ;
#206 = EDGE_CURVE ( 'NONE', #187, #187, #92, .T. ) ;
#207 =( NAMED_UNIT ( * ) PLANE_ANGLE_UNIT ( ) SI_UNIT ( $, .RADIAN. ) );
#208 = PERSON_AND_ORGANIZATION ( #136, #220 ) ;
#209 = ORIENTED_EDGE ( 'NONE', *, *, #82, .T. ) ;
#210 = PRODUCT_DEFINITION_SHAPE ( 'NONE', 'NONE',  #37 ) ;
#211 = EDGE_LOOP ( 'NONE', ( #231 ) ) ;
#212 = MANIFOLD_SOLID_BREP ( 'Corps-Déplacer/Copier1[2]', #158 ) ;
#213 = AXIS2_PLACEMENT_3D ( 'NONE', #46, #164, #74 ) ;
#214 = ORIENTED_EDGE ( 'NONE', *, *, #166, .T. ) ;
#215 = DIRECTION ( 'NONE',  ( -3.491481338843133355E-15, 1.049697256412017316E-16, -1.000000000000000000 ) ) ;
#216 = PERSON_AND_ORGANIZATION ( #136, #220 ) ;
#217 = CYLINDRICAL_SURFACE ( 'NONE', #91, 1.499999999999995337 ) ;
#218 = DIRECTION ( 'NONE',  ( 3.664998382197393967E-31, 1.000000000000000000, 1.049697256412017316E-16 ) ) ;
#219 = FACE_OUTER_BOUND ( 'NONE', #119, .T. ) ;
#220 = ORGANIZATION ( 'UNSPECIFIED', 'UNSPECIFIED', '' ) ;
#221 = DESIGN_CONTEXT ( 'detailed design', #160, 'design' ) ;
#222 = FACE_OUTER_BOUND ( 'NONE', #134, .T. ) ;
#223 = VERTEX_POINT ( 'NONE', #1 ) ;
#224 = CARTESIAN_POINT ( 'NONE',  ( 8.728703347107835360E-16, 1.988999999999998991, 0.2500000000000000000 ) ) ;
#225 = APPROVAL ( #24, 'UNSPECIFIED' ) ;
#226 = SECURITY_CLASSIFICATION ( '', '', #70 ) ;
#227 = DIRECTION ( 'NONE',  ( 0.0000000000000000000, 1.000000000000000000, 0.0000000000000000000 ) ) ;
#228 = CARTESIAN_POINT ( 'NONE',  ( 2.433562493173664138E-13, -7.316389877191761450E-15, 69.70000000000001705 ) ) ;
#229 = COORDINATED_UNIVERSAL_TIME_OFFSET ( 1, 0, .AHEAD. ) ;
#230 = PERSON_AND_ORGANIZATION ( #136, #220 ) ;
#231 = ORIENTED_EDGE ( 'NONE', *, *, #3, .F. ) ;
#232 = AXIS2_PLACEMENT_3D ( 'NONE', #72, #215, #159 ) ;
#233 = CALENDAR_DATE ( 2021, 26, 11 ) ;
#234 = CARTESIAN_POINT ( 'NONE',  ( 3.573726292629882230E-14, -1.074423810549147097E-15, 10.23555890982937200 ) ) ;
#235 = APPROVAL_STATUS ( 'not_yet_approved' ) ;
#236 = CARTESIAN_POINT ( 'NONE',  ( -2.002971058498855355E-30, 1.844662432702592891, -5.736737115606408360E-16 ) ) ;
#237 = FACE_OUTER_BOUND ( 'NONE', #22, .T. ) ;
#238 = DIRECTION ( 'NONE',  ( 3.491481338843133355E-15, 5.925947724188560513E-16, 1.000000000000000000 ) ) ;
#239 = FACE_OUTER_BOUND ( 'NONE', #55, .T. ) ;
#240 = LOCAL_TIME ( 14, 2, 19.00000000000000000, #184 ) ;
#241 = MECHANICAL_CONTEXT ( 'NONE', #145, 'mechanical' ) ;
#242 = CC_DESIGN_PERSON_AND_ORGANIZATION_ASSIGNMENT ( #16, #39, ( #4 ) ) ;
#243 = DATE_AND_TIME ( #14, #240 ) ;
ENDSEC;
END-ISO-10303-21;
