ISO-10303-21;
HEADER;
FILE_DESCRIPTION (( 'STEP AP203' ),
    '1' );
FILE_NAME ('321300.step',
    '2021-11-26T13:02:18',
    ( '' ),
    ( '' ),
    'SwSTEP 2.0',
    'SolidWorks 2019',
    '' );
FILE_SCHEMA (( 'CONFIG_CONTROL_DESIGN' ));
ENDSEC;

DATA;
#1 = CIRCLE ( 'NONE', #197, 1.499999999999992673 ) ;
#2 = APPROVAL_PERSON_ORGANIZATION ( #121, #154, #181 ) ;
#3 = CARTESIAN_POINT ( 'NONE',  ( 3.612502029767912560E-30, 6.124025495044880892E-31, 1.034661703494849076E-15 ) ) ;
#4 = DIRECTION ( 'NONE',  ( -3.491481338843133355E-15, -5.918867465915991891E-16, -1.000000000000000000 ) ) ;
#5 = DIRECTION ( 'NONE',  ( -3.491481338843133355E-15, -5.918867465915991891E-16, -1.000000000000000000 ) ) ;
#6 = DIRECTION ( 'NONE',  ( 0.0000000000000000000, 1.000000000000000000, 0.0000000000000000000 ) ) ;
#7 = ORGANIZATION ( 'UNSPECIFIED', 'UNSPECIFIED', '' ) ;
#8 = DIRECTION ( 'NONE',  ( 1.000000000000000000, 0.0000000000000000000, 0.0000000000000000000 ) ) ;
#9 = APPROVAL_DATE_TIME ( #183, #154 ) ;
#10 = LOCAL_TIME ( 14, 2, 18.00000000000000000, #37 ) ;
#11 = DATE_TIME_ROLE ( 'classification_date' ) ;
#12 = EDGE_LOOP ( 'NONE', ( #188 ) ) ;
#13 = ORIENTED_EDGE ( 'NONE', *, *, #63, .T. ) ;
#14 = PERSON_AND_ORGANIZATION_ROLE ( 'classification_officer' ) ;
#15 = EDGE_LOOP ( 'NONE', ( #131 ) ) ;
#16 = ADVANCED_FACE ( 'NONE', ( #78, #227 ), #111, .T. ) ;
#17 = APPROVAL_STATUS ( 'not_yet_approved' ) ;
#18 = LOCAL_TIME ( 14, 2, 18.00000000000000000, #50 ) ;
#19 = EDGE_LOOP ( 'NONE', ( #190 ) ) ;
#20 = DIRECTION ( 'NONE',  ( 3.491481338843133355E-15, -1.049697256412017316E-16, 1.000000000000000000 ) ) ;
#21 = PRODUCT_RELATED_PRODUCT_CATEGORY ( 'detail', '', ( #98 ) ) ;
#22 = CARTESIAN_POINT ( 'NONE',  ( 3.576750004166159103E-14, -1.075332875039482821E-15, 10.24421916386721776 ) ) ;
#23 = AXIS2_PLACEMENT_3D ( 'NONE', #101, #4, #215 ) ;
#24 = FACE_BOUND ( 'NONE', #56, .T. ) ;
#25 = DIRECTION ( 'NONE',  ( 0.0000000000000000000, 1.000000000000000000, 0.0000000000000000000 ) ) ;
#26 = CARTESIAN_POINT ( 'NONE',  ( 2.433562493173664138E-13, -7.316389877191761450E-15, 69.70000000000001705 ) ) ;
#27 = CLOSED_SHELL ( 'NONE', ( #39, #152, #225, #202 ) ) ;
#28 = APPROVAL_STATUS ( 'not_yet_approved' ) ;
#29 = CC_DESIGN_PERSON_AND_ORGANIZATION_ASSIGNMENT ( #208, #34, ( #180 ) ) ;
#30 = COORDINATED_UNIVERSAL_TIME_OFFSET ( 1, 0, .AHEAD. ) ;
#31 = CARTESIAN_POINT ( 'NONE',  ( 2.444036937190193601E-13, 1.199999999999990186, 70.00000000000000000 ) ) ;
#32 = AXIS2_PLACEMENT_3D ( 'NONE', #66, #159, #79 ) ;
#33 = ORIENTED_EDGE ( 'NONE', *, *, #168, .T. ) ;
#34 = PERSON_AND_ORGANIZATION_ROLE ( 'design_supplier' ) ;
#35 = ORIENTED_EDGE ( 'NONE', *, *, #63, .F. ) ;
#36 = ORIENTED_EDGE ( 'NONE', *, *, #124, .F. ) ;
#37 = COORDINATED_UNIVERSAL_TIME_OFFSET ( 1, 0, .AHEAD. ) ;
#38 = EDGE_LOOP ( 'NONE', ( #210 ) ) ;
#39 = ADVANCED_FACE ( 'NONE', ( #199 ), #139, .T. ) ;
#40 = PLANE ( 'NONE',  #93 ) ;
#41 = MANIFOLD_SOLID_BREP ( 'Corps-Déplacer/Copier1[1]', #133 ) ;
#42 = DIRECTION ( 'NONE',  ( -3.491481338843133355E-15, -5.918867465915991891E-16, -1.000000000000000000 ) ) ;
#43 = FACE_OUTER_BOUND ( 'NONE', #58, .T. ) ;
#44 = PERSON ( 'UNSPECIFIED', 'UNSPECIFIED', 'UNSPECIFIED', ('UNSPECIFIED'), ('UNSPECIFIED'), ('UNSPECIFIED') ) ;
#45 = DIRECTION ( 'NONE',  ( -3.491481338843133355E-15, 1.049697256412017316E-16, -1.000000000000000000 ) ) ;
#46 = DIRECTION ( 'NONE',  ( 0.0000000000000000000, 1.000000000000000000, 0.0000000000000000000 ) ) ;
#47 = VERTEX_POINT ( 'NONE', #165 ) ;
#48 = CARTESIAN_POINT ( 'NONE',  ( -1.892735826383168144E-31, 1.839662432702592554, -5.421010862427522170E-17 ) ) ;
#49 = CC_DESIGN_APPROVAL ( #154, ( #180 ) ) ;
#50 = COORDINATED_UNIVERSAL_TIME_OFFSET ( 1, 0, .AHEAD. ) ;
#51 = CARTESIAN_POINT ( 'NONE',  ( 3.576750004166159103E-14, 1.983999999999998876, 10.24421916386721776 ) ) ;
#52 = CC_DESIGN_DATE_AND_TIME_ASSIGNMENT ( #189, #11, ( #122 ) ) ;
#53 = APPLICATION_CONTEXT ( 'configuration controlled 3d designs of mechanical parts and assemblies' ) ;
#54 = VERTEX_POINT ( 'NONE', #107 ) ;
#55 = AXIS2_PLACEMENT_3D ( 'NONE', #230, #114, #137 ) ;
#56 = EDGE_LOOP ( 'NONE', ( #209 ) ) ;
#57 = CALENDAR_DATE ( 2021, 26, 11 ) ;
#58 = EDGE_LOOP ( 'NONE', ( #62 ) ) ;
#59 = EDGE_LOOP ( 'NONE', ( #13 ) ) ;
#60 = AXIS2_PLACEMENT_3D ( 'NONE', #179, #20, #200 ) ;
#61 = CONICAL_SURFACE ( 'NONE', #156, 1.839662432702592554, 0.5235987755982975944 ) ;
#62 = ORIENTED_EDGE ( 'NONE', *, *, #168, .F. ) ;
#63 = EDGE_CURVE ( 'NONE', #74, #74, #141, .T. ) ;
#64 = FACE_OUTER_BOUND ( 'NONE', #242, .T. ) ;
#65 = CARTESIAN_POINT ( 'NONE',  ( 0.0000000000000000000, 0.0000000000000000000, 0.0000000000000000000 ) ) ;
#66 = CARTESIAN_POINT ( 'NONE',  ( 3.576750004166159103E-14, 6.063417552272679744E-15, 10.24421916386721776 ) ) ;
#67 = CARTESIAN_POINT ( 'NONE',  ( 8.728703347107875789E-16, 1.479716866479005122E-16, 0.2500000000000012212 ) ) ;
#68 = CC_DESIGN_PERSON_AND_ORGANIZATION_ASSIGNMENT ( #76, #14, ( #122 ) ) ;
#69 = DATE_TIME_ROLE ( 'creation_date' ) ;
#70 = CC_DESIGN_DATE_AND_TIME_ASSIGNMENT ( #182, #69, ( #172 ) ) ;
#71 = DIRECTION ( 'NONE',  ( -3.491481338843133355E-15, -5.918867465915991891E-16, -1.000000000000000000 ) ) ;
#72 = CIRCLE ( 'NONE', #151, 1.199999999999997513 ) ;
#73 = CARTESIAN_POINT ( 'NONE',  ( 3.869445280877825183E-14, 1.499999999999991562, 11.08253175473057617 ) ) ;
#74 = VERTEX_POINT ( 'NONE', #146 ) ;
#75 =( GEOMETRIC_REPRESENTATION_CONTEXT ( 3 ) GLOBAL_UNCERTAINTY_ASSIGNED_CONTEXT ( ( #116 ) ) GLOBAL_UNIT_ASSIGNED_CONTEXT ( ( #126, #185, #143 ) ) REPRESENTATION_CONTEXT ( 'NONE', 'WORKASPACE' ) );
#76 = PERSON_AND_ORGANIZATION ( #44, #7 ) ;
#77 = EDGE_LOOP ( 'NONE', ( #35 ) ) ;
#78 = FACE_OUTER_BOUND ( 'NONE', #128, .T. ) ;
#79 = DIRECTION ( 'NONE',  ( 2.066561530433143253E-30, -1.000000000000000000, 5.918867465915991891E-16 ) ) ;
#80 = CARTESIAN_POINT ( 'NONE',  ( 0.0000000000000000000, 0.0000000000000000000, 0.0000000000000000000 ) ) ;
#81 = ADVANCED_FACE ( 'NONE', ( #84 ), #82, .T. ) ;
#82 = PLANE ( 'NONE',  #55 ) ;
#83 = FACE_OUTER_BOUND ( 'NONE', #59, .T. ) ;
#84 = FACE_OUTER_BOUND ( 'NONE', #12, .T. ) ;
#85 = PERSON_AND_ORGANIZATION ( #44, #7 ) ;
#86 = AXIS2_PLACEMENT_3D ( 'NONE', #100, #233, #115 ) ;
#87 = PERSON_AND_ORGANIZATION ( #44, #7 ) ;
#88 = DIRECTION ( 'NONE',  ( -2.038534719361490670E-30, 1.000000000000000000, -6.011201561159554388E-16 ) ) ;
#89 = SECURITY_CLASSIFICATION_LEVEL ( 'unclassified' ) ;
#90 = DATE_AND_TIME ( #170, #10 ) ;
#91 = CC_DESIGN_APPROVAL ( #97, ( #172 ) ) ;
#92 = PERSON_AND_ORGANIZATION_ROLE ( 'creator' ) ;
#93 = AXIS2_PLACEMENT_3D ( 'NONE', #173, #42, #195 ) ;
#94 = FACE_OUTER_BOUND ( 'NONE', #38, .T. ) ;
#95 = DIRECTION ( 'NONE',  ( -3.491481338843133355E-15, 1.049697256412017316E-16, -1.000000000000000000 ) ) ;
#96 = APPLICATION_CONTEXT ( 'configuration controlled 3d designs of mechanical parts and assemblies' ) ;
#97 = APPROVAL ( #237, 'UNSPECIFIED' ) ;
#98 = PRODUCT ( '321300', '321300', '', ( #162 ) ) ;
#99 = DIRECTION ( 'NONE',  ( 3.491481338843133355E-15, 5.918867465915991891E-16, 1.000000000000000000 ) ) ;
#100 = CARTESIAN_POINT ( 'NONE',  ( 2.433562493173664138E-13, -7.316389877191761450E-15, 69.70000000000001705 ) ) ;
#101 = CARTESIAN_POINT ( 'NONE',  ( 3.576750004166159735E-14, 6.063417552272681322E-15, 10.24421916386721954 ) ) ;
#102 = CC_DESIGN_APPROVAL ( #223, ( #122 ) ) ;
#103 = PERSON_AND_ORGANIZATION ( #44, #7 ) ;
#104 = COORDINATED_UNIVERSAL_TIME_OFFSET ( 1, 0, .AHEAD. ) ;
#105 = CALENDAR_DATE ( 2021, 26, 11 ) ;
#106 = ADVANCED_FACE ( 'NONE', ( #243, #229 ), #110, .T. ) ;
#107 = CARTESIAN_POINT ( 'NONE',  ( 8.728703347107835360E-16, 1.983999999999998876, 0.2500000000000000000 ) ) ;
#108 = APPROVAL_ROLE ( '' ) ;
#109 = ADVANCED_FACE ( 'NONE', ( #43 ), #217, .T. ) ;
#110 = CONICAL_SURFACE ( 'NONE', #150, 1.983999999999999542, 0.5235987755982935976 ) ;
#111 = CYLINDRICAL_SURFACE ( 'NONE', #166, 1.499999999999995337 ) ;
#112 = AXIS2_PLACEMENT_3D ( 'NONE', #22, #95, #174 ) ;
#113 = CIRCLE ( 'NONE', #163, 1.839662432702592554 ) ;
#114 = DIRECTION ( 'NONE',  ( -3.491481338843133355E-15, 1.049697256412017316E-16, -1.000000000000000000 ) ) ;
#115 = DIRECTION ( 'NONE',  ( 0.0000000000000000000, 1.000000000000000000, 0.0000000000000000000 ) ) ;
#116 = UNCERTAINTY_MEASURE_WITH_UNIT (LENGTH_MEASURE( 1.000000000000000082E-05 ), #126, 'distance_accuracy_value', 'NONE');
#117 = DIRECTION ( 'NONE',  ( -3.491481338843133355E-15, -5.918867465915991891E-16, -1.000000000000000000 ) ) ;
#118 = AXIS2_PLACEMENT_3D ( 'NONE', #123, #147, #8 ) ;
#119 = CARTESIAN_POINT ( 'NONE',  ( 3.576750004166159103E-14, -1.075332875039482821E-15, 10.24421916386721776 ) ) ;
#120 = FACE_BOUND ( 'NONE', #205, .T. ) ;
#121 = PERSON_AND_ORGANIZATION ( #44, #7 ) ;
#122 = SECURITY_CLASSIFICATION ( '', '', #89 ) ;
#123 = CARTESIAN_POINT ( 'NONE',  ( 0.0000000000000000000, 0.0000000000000000000, 0.0000000000000000000 ) ) ;
#124 = EDGE_CURVE ( 'NONE', #238, #238, #1, .T. ) ;
#125 = APPROVAL_PERSON_ORGANIZATION ( #201, #97, #108 ) ;
#126 =( LENGTH_UNIT ( ) NAMED_UNIT ( * ) SI_UNIT ( .MILLI., .METRE. ) );
#127 = CC_DESIGN_PERSON_AND_ORGANIZATION_ASSIGNMENT ( #87, #92, ( #180 ) ) ;
#128 = EDGE_LOOP ( 'NONE', ( #169 ) ) ;
#129 = EDGE_LOOP ( 'NONE', ( #167 ) ) ;
#130 = CIRCLE ( 'NONE', #138, 1.983999999999998876 ) ;
#131 = ORIENTED_EDGE ( 'NONE', *, *, #216, .F. ) ;
#132 = DIRECTION ( 'NONE',  ( -2.066561530433142902E-30, 1.000000000000000000, -5.918867465915991891E-16 ) ) ;
#133 = CLOSED_SHELL ( 'NONE', ( #109, #144, #16, #106, #81 ) ) ;
#134 = CIRCLE ( 'NONE', #241, 1.499999999999997558 ) ;
#135 = DIRECTION ( 'NONE',  ( -3.491481338843133355E-15, 1.049697256412017316E-16, -1.000000000000000000 ) ) ;
#136 = DIRECTION ( 'NONE',  ( 3.664998382197393967E-31, 1.000000000000000000, 1.049697256412017316E-16 ) ) ;
#137 = DIRECTION ( 'NONE',  ( 3.664998382197393967E-31, 1.000000000000000000, 1.049697256412017316E-16 ) ) ;
#138 = AXIS2_PLACEMENT_3D ( 'NONE', #67, #71, #88 ) ;
#139 = PLANE ( 'NONE',  #32 ) ;
#140 = PERSON_AND_ORGANIZATION_ROLE ( 'creator' ) ;
#141 = CIRCLE ( 'NONE', #23, 1.983999999999992658 ) ;
#142 = CIRCLE ( 'NONE', #112, 1.983999999999999542 ) ;
#143 =( NAMED_UNIT ( * ) SI_UNIT ( $, .STERADIAN. ) SOLID_ANGLE_UNIT ( ) );
#144 = ADVANCED_FACE ( 'NONE', ( #120, #213 ), #175, .T. ) ;
#145 = ADVANCED_BREP_SHAPE_REPRESENTATION ( '321300', ( #41, #206, #118 ), #75 ) ;
#146 = CARTESIAN_POINT ( 'NONE',  ( 3.576750004166159103E-14, 1.983999999999998876, 10.24421916386721776 ) ) ;
#147 = DIRECTION ( 'NONE',  ( 0.0000000000000000000, 0.0000000000000000000, 1.000000000000000000 ) ) ;
#148 = PERSON_AND_ORGANIZATION ( #44, #7 ) ;
#149 = APPROVAL_DATE_TIME ( #90, #223 ) ;
#150 = AXIS2_PLACEMENT_3D ( 'NONE', #119, #218, #6 ) ;
#151 = AXIS2_PLACEMENT_3D ( 'NONE', #178, #135, #46 ) ;
#152 = ADVANCED_FACE ( 'NONE', ( #83, #64 ), #155, .T. ) ;
#153 = EDGE_LOOP ( 'NONE', ( #171 ) ) ;
#154 = APPROVAL ( #28, 'UNSPECIFIED' ) ;
#155 = CYLINDRICAL_SURFACE ( 'NONE', #192, 1.983999999999995767 ) ;
#156 = AXIS2_PLACEMENT_3D ( 'NONE', #231, #99, #176 ) ;
#157 = FACE_OUTER_BOUND ( 'NONE', #129, .T. ) ;
#158 = CARTESIAN_POINT ( 'NONE',  ( 3.869445280877825183E-14, -1.163330317703974635E-15, 11.08253175473057617 ) ) ;
#159 = DIRECTION ( 'NONE',  ( 3.491481338843133355E-15, 5.918867465915991891E-16, 1.000000000000000000 ) ) ;
#160 = APPROVAL_DATE_TIME ( #186, #97 ) ;
#161 = VERTEX_POINT ( 'NONE', #31 ) ;
#162 = MECHANICAL_CONTEXT ( 'NONE', #53, 'mechanical' ) ;
#163 = AXIS2_PLACEMENT_3D ( 'NONE', #3, #117, #196 ) ;
#164 = PERSON_AND_ORGANIZATION_ROLE ( 'design_owner' ) ;
#165 = CARTESIAN_POINT ( 'NONE',  ( 2.433562493173664138E-13, 1.499999999999990230, 69.70000000000001705 ) ) ;
#166 = AXIS2_PLACEMENT_3D ( 'NONE', #80, #234, #136 ) ;
#167 = ORIENTED_EDGE ( 'NONE', *, *, #239, .T. ) ;
#168 = EDGE_CURVE ( 'NONE', #161, #161, #72, .T. ) ;
#169 = ORIENTED_EDGE ( 'NONE', *, *, #177, .T. ) ;
#170 = CALENDAR_DATE ( 2021, 26, 11 ) ;
#171 = ORIENTED_EDGE ( 'NONE', *, *, #177, .F. ) ;
#172 = PRODUCT_DEFINITION ( 'UNKNOWN', '', #180, #232 ) ;
#173 = CARTESIAN_POINT ( 'NONE',  ( -1.995524597522272394E-30, 1.839662432702592554, -5.715409603716997599E-16 ) ) ;
#174 = DIRECTION ( 'NONE',  ( 0.0000000000000000000, 1.000000000000000000, 0.0000000000000000000 ) ) ;
#175 = CONICAL_SURFACE ( 'NONE', #86, 1.499999999999997558, 0.7853981633974573828 ) ;
#176 = DIRECTION ( 'NONE',  ( 2.066561530433143253E-30, -1.000000000000000000, 5.918867465915991891E-16 ) ) ;
#177 = EDGE_CURVE ( 'NONE', #47, #47, #134, .T. ) ;
#178 = CARTESIAN_POINT ( 'NONE',  ( 2.444036937190193601E-13, -7.347880794884121511E-15, 70.00000000000000000 ) ) ;
#179 = CARTESIAN_POINT ( 'NONE',  ( 2.444036937190193601E-13, -7.347880794884121511E-15, 70.00000000000000000 ) ) ;
#180 = PRODUCT_DEFINITION_FORMATION_WITH_SPECIFIED_SOURCE ( 'ANY', '', #98, .NOT_KNOWN. ) ;
#181 = APPROVAL_ROLE ( '' ) ;
#182 = DATE_AND_TIME ( #236, #184 ) ;
#183 = DATE_AND_TIME ( #105, #212 ) ;
#184 = LOCAL_TIME ( 14, 2, 18.00000000000000000, #104 ) ;
#185 =( NAMED_UNIT ( * ) PLANE_ANGLE_UNIT ( ) SI_UNIT ( $, .RADIAN. ) );
#186 = DATE_AND_TIME ( #203, #18 ) ;
#187 = APPROVAL_ROLE ( '' ) ;
#188 = ORIENTED_EDGE ( 'NONE', *, *, #216, .T. ) ;
#189 = DATE_AND_TIME ( #57, #207 ) ;
#190 = ORIENTED_EDGE ( 'NONE', *, *, #124, .T. ) ;
#191 = CC_DESIGN_PERSON_AND_ORGANIZATION_ASSIGNMENT ( #103, #164, ( #98 ) ) ;
#192 = AXIS2_PLACEMENT_3D ( 'NONE', #65, #5, #132 ) ;
#193 = EDGE_LOOP ( 'NONE', ( #36 ) ) ;
#194 = DIRECTION ( 'NONE',  ( -3.491481338843133355E-15, 1.049697256412017316E-16, -1.000000000000000000 ) ) ;
#195 = DIRECTION ( 'NONE',  ( -2.066561530433143253E-30, 1.000000000000000000, -5.918867465915991891E-16 ) ) ;
#196 = DIRECTION ( 'NONE',  ( -2.066561530433143253E-30, 1.000000000000000000, -5.918867465915991891E-16 ) ) ;
#197 = AXIS2_PLACEMENT_3D ( 'NONE', #158, #194, #25 ) ;
#198 = CC_DESIGN_SECURITY_CLASSIFICATION ( #122, ( #180 ) ) ;
#199 = FACE_OUTER_BOUND ( 'NONE', #77, .T. ) ;
#200 = DIRECTION ( 'NONE',  ( -3.664998382197393967E-31, -1.000000000000000000, -1.049697256412017316E-16 ) ) ;
#201 = PERSON_AND_ORGANIZATION ( #44, #7 ) ;
#202 = ADVANCED_FACE ( 'NONE', ( #94 ), #40, .T. ) ;
#203 = CALENDAR_DATE ( 2021, 26, 11 ) ;
#204 = APPLICATION_PROTOCOL_DEFINITION ( 'international standard', 'config_control_design', 1994, #96 ) ;
#205 = EDGE_LOOP ( 'NONE', ( #33 ) ) ;
#206 = MANIFOLD_SOLID_BREP ( 'Corps-Déplacer/Copier1[2]', #27 ) ;
#207 = LOCAL_TIME ( 14, 2, 18.00000000000000000, #226 ) ;
#208 = PERSON_AND_ORGANIZATION ( #44, #7 ) ;
#209 = ORIENTED_EDGE ( 'NONE', *, *, #219, .F. ) ;
#210 = ORIENTED_EDGE ( 'NONE', *, *, #219, .T. ) ;
#211 = ORIENTED_EDGE ( 'NONE', *, *, #239, .F. ) ;
#212 = LOCAL_TIME ( 14, 2, 18.00000000000000000, #30 ) ;
#213 = FACE_OUTER_BOUND ( 'NONE', #153, .T. ) ;
#214 = DIRECTION ( 'NONE',  ( 0.0000000000000000000, 1.000000000000000000, 0.0000000000000000000 ) ) ;
#215 = DIRECTION ( 'NONE',  ( -3.106338619979424046E-30, 1.000000000000000000, -8.743565907141196822E-16 ) ) ;
#216 = EDGE_CURVE ( 'NONE', #224, #224, #142, .T. ) ;
#217 = PLANE ( 'NONE',  #60 ) ;
#218 = DIRECTION ( 'NONE',  ( -3.491481338843133355E-15, 1.049697256412017316E-16, -1.000000000000000000 ) ) ;
#219 = EDGE_CURVE ( 'NONE', #221, #221, #113, .T. ) ;
#220 = APPLICATION_PROTOCOL_DEFINITION ( 'international standard', 'config_control_design', 1994, #53 ) ;
#221 = VERTEX_POINT ( 'NONE', #48 ) ;
#222 = APPROVAL_PERSON_ORGANIZATION ( #148, #223, #187 ) ;
#223 = APPROVAL ( #17, 'UNSPECIFIED' ) ;
#224 = VERTEX_POINT ( 'NONE', #51 ) ;
#225 = ADVANCED_FACE ( 'NONE', ( #157, #24 ), #61, .T. ) ;
#226 = COORDINATED_UNIVERSAL_TIME_OFFSET ( 1, 0, .AHEAD. ) ;
#227 = FACE_OUTER_BOUND ( 'NONE', #193, .T. ) ;
#228 = CC_DESIGN_PERSON_AND_ORGANIZATION_ASSIGNMENT ( #85, #140, ( #172 ) ) ;
#229 = FACE_OUTER_BOUND ( 'NONE', #15, .T. ) ;
#230 = CARTESIAN_POINT ( 'NONE',  ( 3.576750004166159103E-14, 1.983999999999998876, 10.24421916386721776 ) ) ;
#231 = CARTESIAN_POINT ( 'NONE',  ( 3.612502029767912560E-30, 6.124025495044880892E-31, 1.034661703494849076E-15 ) ) ;
#232 = DESIGN_CONTEXT ( 'detailed design', #96, 'design' ) ;
#233 = DIRECTION ( 'NONE',  ( -3.491481338843133355E-15, 1.049697256412017316E-16, -1.000000000000000000 ) ) ;
#234 = DIRECTION ( 'NONE',  ( -3.491481338843133355E-15, 1.049697256412017316E-16, -1.000000000000000000 ) ) ;
#235 = PRODUCT_DEFINITION_SHAPE ( 'NONE', 'NONE',  #172 ) ;
#236 = CALENDAR_DATE ( 2021, 26, 11 ) ;
#237 = APPROVAL_STATUS ( 'not_yet_approved' ) ;
#238 = VERTEX_POINT ( 'NONE', #73 ) ;
#239 = EDGE_CURVE ( 'NONE', #54, #54, #130, .T. ) ;
#240 = SHAPE_DEFINITION_REPRESENTATION ( #235, #145 ) ;
#241 = AXIS2_PLACEMENT_3D ( 'NONE', #26, #45, #214 ) ;
#242 = EDGE_LOOP ( 'NONE', ( #211 ) ) ;
#243 = FACE_BOUND ( 'NONE', #19, .T. ) ;
ENDSEC;
END-ISO-10303-21;
