ISO-10303-21;
HEADER;
FILE_DESCRIPTION (( 'STEP AP203' ),
    '1' );
FILE_NAME ('321299.step',
    '2021-11-26T13:02:18',
    ( '' ),
    ( '' ),
    'SwSTEP 2.0',
    'SolidWorks 2019',
    '' );
FILE_SCHEMA (( 'CONFIG_CONTROL_DESIGN' ));
ENDSEC;

DATA;
#1 = CARTESIAN_POINT ( 'NONE',  ( 8.728703347107875789E-16, 1.477949792135988589E-16, 0.2500000000000012212 ) ) ;
#2 = PERSON_AND_ORGANIZATION ( #159, #121 ) ;
#3 = PERSON_AND_ORGANIZATION ( #159, #121 ) ;
#4 = APPROVAL_PERSON_ORGANIZATION ( #146, #6, #203 ) ;
#5 = ORIENTED_EDGE ( 'NONE', *, *, #90, .F. ) ;
#6 = APPROVAL ( #226, 'UNSPECIFIED' ) ;
#7 = PERSON_AND_ORGANIZATION_ROLE ( 'design_supplier' ) ;
#8 = EDGE_LOOP ( 'NONE', ( #233 ) ) ;
#9 = FACE_OUTER_BOUND ( 'NONE', #235, .T. ) ;
#10 = DIRECTION ( 'NONE',  ( -3.491481338843133355E-15, -5.911799168543925758E-16, -1.000000000000000000 ) ) ;
#11 = ADVANCED_FACE ( 'NONE', ( #30, #68 ), #101, .T. ) ;
#12 = PLANE ( 'NONE',  #221 ) ;
#13 = CARTESIAN_POINT ( 'NONE',  ( 3.579773715702437239E-14, -1.076241939529818545E-15, 10.25287941790506174 ) ) ;
#14 = DIRECTION ( 'NONE',  ( 0.0000000000000000000, 1.000000000000000000, 0.0000000000000000000 ) ) ;
#15 = EDGE_CURVE ( 'NONE', #209, #209, #237, .T. ) ;
#16 = DIRECTION ( 'NONE',  ( -3.491481338843133355E-15, -5.911799168543925758E-16, -1.000000000000000000 ) ) ;
#17 = DIRECTION ( 'NONE',  ( 0.0000000000000000000, 0.0000000000000000000, 1.000000000000000000 ) ) ;
#18 = ADVANCED_FACE ( 'NONE', ( #97, #176 ), #150, .T. ) ;
#19 = FACE_BOUND ( 'NONE', #75, .T. ) ;
#20 = AXIS2_PLACEMENT_3D ( 'NONE', #224, #182, #168 ) ;
#21 = DIRECTION ( 'NONE',  ( 0.0000000000000000000, 1.000000000000000000, 0.0000000000000000000 ) ) ;
#22 = DATE_AND_TIME ( #232, #114 ) ;
#23 = ORIENTED_EDGE ( 'NONE', *, *, #15, .T. ) ;
#24 = CIRCLE ( 'NONE', #145, 1.499999999999997558 ) ;
#25 = MANIFOLD_SOLID_BREP ( 'Corps-Déplacer/Copier1[1]', #163 ) ;
#26 = PERSON_AND_ORGANIZATION ( #159, #121 ) ;
#27 = EDGE_LOOP ( 'NONE', ( #93 ) ) ;
#28 = DIRECTION ( 'NONE',  ( -3.491481338843133355E-15, 1.049697256412017316E-16, -1.000000000000000000 ) ) ;
#29 = CARTESIAN_POINT ( 'NONE',  ( 0.0000000000000000000, 0.0000000000000000000, 0.0000000000000000000 ) ) ;
#30 = FACE_OUTER_BOUND ( 'NONE', #192, .T. ) ;
#31 = DIRECTION ( 'NONE',  ( -2.064093647595946993E-30, 1.000000000000000000, -5.911799168543925758E-16 ) ) ;
#32 = DIRECTION ( 'NONE',  ( 2.064093647595947343E-30, -1.000000000000000000, 5.911799168543925758E-16 ) ) ;
#33 = PRODUCT ( '321299', '321299', '', ( #109 ) ) ;
#34 = CARTESIAN_POINT ( 'NONE',  ( 3.579773715702437239E-14, 1.978999999999998982, 10.25287941790506174 ) ) ;
#35 = VERTEX_POINT ( 'NONE', #207 ) ;
#36 = CARTESIAN_POINT ( 'NONE',  ( 2.444036937190193601E-13, 1.199999999999990186, 70.00000000000000000 ) ) ;
#37 = APPLICATION_PROTOCOL_DEFINITION ( 'international standard', 'config_control_design', 1994, #225 ) ;
#38 = DATE_TIME_ROLE ( 'classification_date' ) ;
#39 = EDGE_LOOP ( 'NONE', ( #116 ) ) ;
#40 = ADVANCED_FACE ( 'NONE', ( #84 ), #12, .T. ) ;
#41 = PERSON_AND_ORGANIZATION ( #159, #121 ) ;
#42 = EDGE_LOOP ( 'NONE', ( #140 ) ) ;
#43 = DIRECTION ( 'NONE',  ( -3.114186873188062935E-30, 1.000000000000000000, -8.765656776032406446E-16 ) ) ;
#44 = CIRCLE ( 'NONE', #72, 1.199999999999997513 ) ;
#45 = LOCAL_TIME ( 14, 2, 18.00000000000000000, #113 ) ;
#46 = CARTESIAN_POINT ( 'NONE',  ( 3.597641490186031733E-30, 6.091550235078165164E-31, 1.030405475796721253E-15 ) ) ;
#47 = CARTESIAN_POINT ( 'NONE',  ( -1.988094327731331980E-30, 1.834662432702592882, -5.694128465226358484E-16 ) ) ;
#48 = AXIS2_PLACEMENT_3D ( 'NONE', #204, #17, #57 ) ;
#49 = DIRECTION ( 'NONE',  ( 3.491481338843133355E-15, 5.911799168543925758E-16, 1.000000000000000000 ) ) ;
#50 = CC_DESIGN_PERSON_AND_ORGANIZATION_ASSIGNMENT ( #2, #52, ( #33 ) ) ;
#51 = DIRECTION ( 'NONE',  ( 0.0000000000000000000, 1.000000000000000000, 0.0000000000000000000 ) ) ;
#52 = PERSON_AND_ORGANIZATION_ROLE ( 'design_owner' ) ;
#53 = EDGE_CURVE ( 'NONE', #184, #184, #44, .T. ) ;
#54 = UNCERTAINTY_MEASURE_WITH_UNIT (LENGTH_MEASURE( 1.000000000000000082E-05 ), #243, 'distance_accuracy_value', 'NONE');
#55 = CC_DESIGN_APPROVAL ( #172, ( #136 ) ) ;
#56 = FACE_OUTER_BOUND ( 'NONE', #8, .T. ) ;
#57 = DIRECTION ( 'NONE',  ( 1.000000000000000000, 0.0000000000000000000, 0.0000000000000000000 ) ) ;
#58 = DATE_AND_TIME ( #149, #180 ) ;
#59 = PERSON_AND_ORGANIZATION ( #159, #121 ) ;
#60 = AXIS2_PLACEMENT_3D ( 'NONE', #241, #98, #43 ) ;
#61 = ORIENTED_EDGE ( 'NONE', *, *, #15, .F. ) ;
#62 = FACE_OUTER_BOUND ( 'NONE', #177, .T. ) ;
#63 = CIRCLE ( 'NONE', #183, 1.978999999999999870 ) ;
#64 = CC_DESIGN_APPROVAL ( #231, ( #222 ) ) ;
#65 = DIRECTION ( 'NONE',  ( -2.064093647595946993E-30, 1.000000000000000000, -5.911799168543925758E-16 ) ) ;
#66 = DIRECTION ( 'NONE',  ( -3.491481338843133355E-15, 1.049697256412017316E-16, -1.000000000000000000 ) ) ;
#67 = CARTESIAN_POINT ( 'NONE',  ( 2.444036937190193601E-13, -7.347880794884121511E-15, 70.00000000000000000 ) ) ;
#68 = FACE_OUTER_BOUND ( 'NONE', #39, .T. ) ;
#69 = APPLICATION_PROTOCOL_DEFINITION ( 'international standard', 'config_control_design', 1994, #223 ) ;
#70 = VERTEX_POINT ( 'NONE', #167 ) ;
#71 = SECURITY_CLASSIFICATION_LEVEL ( 'unclassified' ) ;
#72 = AXIS2_PLACEMENT_3D ( 'NONE', #67, #28, #156 ) ;
#73 = ADVANCED_FACE ( 'NONE', ( #9 ), #162, .T. ) ;
#74 = APPROVAL_ROLE ( '' ) ;
#75 = EDGE_LOOP ( 'NONE', ( #186 ) ) ;
#76 = CC_DESIGN_APPROVAL ( #6, ( #169 ) ) ;
#77 = ORIENTED_EDGE ( 'NONE', *, *, #152, .T. ) ;
#78 = DIRECTION ( 'NONE',  ( -3.491481338843133355E-15, 1.049697256412017316E-16, -1.000000000000000000 ) ) ;
#79 = DIRECTION ( 'NONE',  ( -3.664998382197393967E-31, -1.000000000000000000, -1.049697256412017316E-16 ) ) ;
#80 = APPROVAL_PERSON_ORGANIZATION ( #3, #231, #131 ) ;
#81 = FACE_OUTER_BOUND ( 'NONE', #175, .T. ) ;
#82 = CC_DESIGN_PERSON_AND_ORGANIZATION_ASSIGNMENT ( #26, #229, ( #222 ) ) ;
#83 = DIRECTION ( 'NONE',  ( -3.491481338843133355E-15, 1.049697256412017316E-16, -1.000000000000000000 ) ) ;
#84 = FACE_OUTER_BOUND ( 'NONE', #27, .T. ) ;
#85 = CIRCLE ( 'NONE', #196, 1.834662432702592882 ) ;
#86 = APPROVAL_DATE_TIME ( #179, #6 ) ;
#87 = DIRECTION ( 'NONE',  ( -2.043685135529660247E-30, 1.000000000000000000, -6.026389033522261251E-16 ) ) ;
#88 = ADVANCED_FACE ( 'NONE', ( #81, #155 ), #205, .T. ) ;
#89 = VERTEX_POINT ( 'NONE', #123 ) ;
#90 = EDGE_CURVE ( 'NONE', #89, #89, #63, .T. ) ;
#91 = APPROVAL_DATE_TIME ( #58, #231 ) ;
#92 = ORIENTED_EDGE ( 'NONE', *, *, #141, .F. ) ;
#93 = ORIENTED_EDGE ( 'NONE', *, *, #53, .F. ) ;
#94 = SHAPE_DEFINITION_REPRESENTATION ( #227, #228 ) ;
#95 = ORIENTED_EDGE ( 'NONE', *, *, #90, .T. ) ;
#96 = CARTESIAN_POINT ( 'NONE',  ( 3.579773715702437870E-14, 6.061296401795229655E-15, 10.25287941790506352 ) ) ;
#97 = FACE_BOUND ( 'NONE', #220, .T. ) ;
#98 = DIRECTION ( 'NONE',  ( -3.491481338843133355E-15, -5.911799168543925758E-16, -1.000000000000000000 ) ) ;
#99 = CONICAL_SURFACE ( 'NONE', #20, 1.499999999999997558, 0.7853981633974573828 ) ;
#100 = CARTESIAN_POINT ( 'NONE',  ( 3.869445280877825814E-14, -1.163330317703974832E-15, 11.08253175473057794 ) ) ;
#101 = CYLINDRICAL_SURFACE ( 'NONE', #195, 1.499999999999995337 ) ;
#102 = COORDINATED_UNIVERSAL_TIME_OFFSET ( 1, 0, .AHEAD. ) ;
#103 = CLOSED_SHELL ( 'NONE', ( #73, #107, #88, #144 ) ) ;
#104 = AXIS2_PLACEMENT_3D ( 'NONE', #1, #16, #87 ) ;
#105 = VERTEX_POINT ( 'NONE', #142 ) ;
#106 = CARTESIAN_POINT ( 'NONE',  ( 2.433562493173664138E-13, -7.316389877191761450E-15, 69.70000000000001705 ) ) ;
#107 = ADVANCED_FACE ( 'NONE', ( #62, #217 ), #118, .T. ) ;
#108 = AXIS2_PLACEMENT_3D ( 'NONE', #13, #238, #240 ) ;
#109 = MECHANICAL_CONTEXT ( 'NONE', #225, 'mechanical' ) ;
#110 = CIRCLE ( 'NONE', #104, 1.978999999999998982 ) ;
#111 = DATE_TIME_ROLE ( 'creation_date' ) ;
#112 = APPROVAL_STATUS ( 'not_yet_approved' ) ;
#113 = COORDINATED_UNIVERSAL_TIME_OFFSET ( 1, 0, .AHEAD. ) ;
#114 = LOCAL_TIME ( 14, 2, 18.00000000000000000, #190 ) ;
#115 = EDGE_LOOP ( 'NONE', ( #92 ) ) ;
#116 = ORIENTED_EDGE ( 'NONE', *, *, #152, .F. ) ;
#117 = DIRECTION ( 'NONE',  ( 2.064093647595946993E-30, -1.000000000000000000, 5.911799168543925758E-16 ) ) ;
#118 = CYLINDRICAL_SURFACE ( 'NONE', #242, 1.978999999999995874 ) ;
#119 = DIRECTION ( 'NONE',  ( 3.664998382197393967E-31, 1.000000000000000000, 1.049697256412017316E-16 ) ) ;
#120 = DIRECTION ( 'NONE',  ( -3.491481338843133355E-15, -5.911799168543925758E-16, -1.000000000000000000 ) ) ;
#121 = ORGANIZATION ( 'UNSPECIFIED', 'UNSPECIFIED', '' ) ;
#122 = DIRECTION ( 'NONE',  ( 3.491481338843133355E-15, -1.049697256412017316E-16, 1.000000000000000000 ) ) ;
#123 = CARTESIAN_POINT ( 'NONE',  ( 3.579773715702437239E-14, 1.978999999999998982, 10.25287941790506174 ) ) ;
#124 = CC_DESIGN_DATE_AND_TIME_ASSIGNMENT ( #22, #111, ( #169 ) ) ;
#125 = AXIS2_PLACEMENT_3D ( 'NONE', #218, #66, #119 ) ;
#126 = VERTEX_POINT ( 'NONE', #181 ) ;
#127 = CC_DESIGN_PERSON_AND_ORGANIZATION_ASSIGNMENT ( #41, #7, ( #136 ) ) ;
#128 = CALENDAR_DATE ( 2021, 26, 11 ) ;
#129 = APPROVAL_PERSON_ORGANIZATION ( #59, #172, #74 ) ;
#130 = DATE_AND_TIME ( #185, #45 ) ;
#131 = APPROVAL_ROLE ( '' ) ;
#132 = DATE_AND_TIME ( #193, #234 ) ;
#133 = ADVANCED_FACE ( 'NONE', ( #239 ), #138, .T. ) ;
#134 = EDGE_LOOP ( 'NONE', ( #5 ) ) ;
#135 = EDGE_LOOP ( 'NONE', ( #154 ) ) ;
#136 = PRODUCT_DEFINITION_FORMATION_WITH_SPECIFIED_SOURCE ( 'ANY', '', #33, .NOT_KNOWN. ) ;
#137 = PRODUCT_RELATED_PRODUCT_CATEGORY ( 'detail', '', ( #33 ) ) ;
#138 = PLANE ( 'NONE',  #125 ) ;
#139 = FACE_OUTER_BOUND ( 'NONE', #135, .T. ) ;
#140 = ORIENTED_EDGE ( 'NONE', *, *, #201, .F. ) ;
#141 = EDGE_CURVE ( 'NONE', #35, #35, #85, .T. ) ;
#142 = CARTESIAN_POINT ( 'NONE',  ( 3.869445280877825814E-14, 1.499999999999991562, 11.08253175473057794 ) ) ;
#143 =( NAMED_UNIT ( * ) PLANE_ANGLE_UNIT ( ) SI_UNIT ( $, .RADIAN. ) );
#144 = ADVANCED_FACE ( 'NONE', ( #139 ), #219, .T. ) ;
#145 = AXIS2_PLACEMENT_3D ( 'NONE', #106, #165, #21 ) ;
#146 = PERSON_AND_ORGANIZATION ( #159, #121 ) ;
#147 = DESIGN_CONTEXT ( 'detailed design', #223, 'design' ) ;
#148 =( NAMED_UNIT ( * ) SI_UNIT ( $, .STERADIAN. ) SOLID_ANGLE_UNIT ( ) );
#149 = CALENDAR_DATE ( 2021, 26, 11 ) ;
#150 = CONICAL_SURFACE ( 'NONE', #108, 1.978999999999999870, 0.5235987755982931535 ) ;
#151 = PERSON_AND_ORGANIZATION ( #159, #121 ) ;
#152 = EDGE_CURVE ( 'NONE', #105, #105, #230, .T. ) ;
#153 =( GEOMETRIC_REPRESENTATION_CONTEXT ( 3 ) GLOBAL_UNCERTAINTY_ASSIGNED_CONTEXT ( ( #54 ) ) GLOBAL_UNIT_ASSIGNED_CONTEXT ( ( #243, #143, #148 ) ) REPRESENTATION_CONTEXT ( 'NONE', 'WORKASPACE' ) );
#154 = ORIENTED_EDGE ( 'NONE', *, *, #141, .T. ) ;
#155 = FACE_BOUND ( 'NONE', #115, .T. ) ;
#156 = DIRECTION ( 'NONE',  ( 0.0000000000000000000, 1.000000000000000000, 0.0000000000000000000 ) ) ;
#157 = LOCAL_TIME ( 14, 2, 18.00000000000000000, #102 ) ;
#158 = DIRECTION ( 'NONE',  ( -2.064093647595947343E-30, 1.000000000000000000, -5.911799168543925758E-16 ) ) ;
#159 = PERSON ( 'UNSPECIFIED', 'UNSPECIFIED', 'UNSPECIFIED', ('UNSPECIFIED'), ('UNSPECIFIED'), ('UNSPECIFIED') ) ;
#160 = DIRECTION ( 'NONE',  ( -3.491481338843133355E-15, 1.049697256412017316E-16, -1.000000000000000000 ) ) ;
#161 = CC_DESIGN_DATE_AND_TIME_ASSIGNMENT ( #130, #38, ( #222 ) ) ;
#162 = PLANE ( 'NONE',  #216 ) ;
#163 = CLOSED_SHELL ( 'NONE', ( #40, #166, #11, #18, #133 ) ) ;
#164 = PERSON_AND_ORGANIZATION_ROLE ( 'creator' ) ;
#165 = DIRECTION ( 'NONE',  ( -3.491481338843133355E-15, 1.049697256412017316E-16, -1.000000000000000000 ) ) ;
#166 = ADVANCED_FACE ( 'NONE', ( #19, #56 ), #99, .T. ) ;
#167 = CARTESIAN_POINT ( 'NONE',  ( 2.433562493173664138E-13, 1.499999999999990230, 69.70000000000001705 ) ) ;
#168 = DIRECTION ( 'NONE',  ( 0.0000000000000000000, 1.000000000000000000, 0.0000000000000000000 ) ) ;
#169 = PRODUCT_DEFINITION ( 'UNKNOWN', '', #136, #147 ) ;
#170 = AXIS2_PLACEMENT_3D ( 'NONE', #47, #120, #31 ) ;
#171 = COORDINATED_UNIVERSAL_TIME_OFFSET ( 1, 0, .AHEAD. ) ;
#172 = APPROVAL ( #174, 'UNSPECIFIED' ) ;
#173 = ORIENTED_EDGE ( 'NONE', *, *, #214, .T. ) ;
#174 = APPROVAL_STATUS ( 'not_yet_approved' ) ;
#175 = EDGE_LOOP ( 'NONE', ( #194 ) ) ;
#176 = FACE_OUTER_BOUND ( 'NONE', #134, .T. ) ;
#177 = EDGE_LOOP ( 'NONE', ( #23 ) ) ;
#178 = DIRECTION ( 'NONE',  ( -3.491481338843133355E-15, -5.911799168543925758E-16, -1.000000000000000000 ) ) ;
#179 = DATE_AND_TIME ( #128, #157 ) ;
#180 = LOCAL_TIME ( 14, 2, 18.00000000000000000, #187 ) ;
#181 = CARTESIAN_POINT ( 'NONE',  ( 8.728703347107835360E-16, 1.978999999999998982, 0.2500000000000000000 ) ) ;
#182 = DIRECTION ( 'NONE',  ( -3.491481338843133355E-15, 1.049697256412017316E-16, -1.000000000000000000 ) ) ;
#183 = AXIS2_PLACEMENT_3D ( 'NONE', #236, #83, #14 ) ;
#184 = VERTEX_POINT ( 'NONE', #36 ) ;
#185 = CALENDAR_DATE ( 2021, 26, 11 ) ;
#186 = ORIENTED_EDGE ( 'NONE', *, *, #53, .T. ) ;
#187 = COORDINATED_UNIVERSAL_TIME_OFFSET ( 1, 0, .AHEAD. ) ;
#188 = MANIFOLD_SOLID_BREP ( 'Corps-Déplacer/Copier1[2]', #103 ) ;
#189 = CC_DESIGN_SECURITY_CLASSIFICATION ( #222, ( #136 ) ) ;
#190 = COORDINATED_UNIVERSAL_TIME_OFFSET ( 1, 0, .AHEAD. ) ;
#191 = CC_DESIGN_PERSON_AND_ORGANIZATION_ASSIGNMENT ( #208, #164, ( #169 ) ) ;
#192 = EDGE_LOOP ( 'NONE', ( #173 ) ) ;
#193 = CALENDAR_DATE ( 2021, 26, 11 ) ;
#194 = ORIENTED_EDGE ( 'NONE', *, *, #201, .T. ) ;
#195 = AXIS2_PLACEMENT_3D ( 'NONE', #29, #78, #197 ) ;
#196 = AXIS2_PLACEMENT_3D ( 'NONE', #199, #178, #158 ) ;
#197 = DIRECTION ( 'NONE',  ( 3.664998382197393967E-31, 1.000000000000000000, 1.049697256412017316E-16 ) ) ;
#198 = CARTESIAN_POINT ( 'NONE',  ( 0.0000000000000000000, 0.0000000000000000000, 0.0000000000000000000 ) ) ;
#199 = CARTESIAN_POINT ( 'NONE',  ( 3.597641490186031733E-30, 6.091550235078165164E-31, 1.030405475796721253E-15 ) ) ;
#200 = CARTESIAN_POINT ( 'NONE',  ( 2.444036937190193601E-13, -7.347880794884121511E-15, 70.00000000000000000 ) ) ;
#201 = EDGE_CURVE ( 'NONE', #126, #126, #110, .T. ) ;
#202 = DIRECTION ( 'NONE',  ( 3.491481338843133355E-15, 5.911799168543925758E-16, 1.000000000000000000 ) ) ;
#203 = APPROVAL_ROLE ( '' ) ;
#204 = CARTESIAN_POINT ( 'NONE',  ( 0.0000000000000000000, 0.0000000000000000000, 0.0000000000000000000 ) ) ;
#205 = CONICAL_SURFACE ( 'NONE', #211, 1.834662432702592882, 0.5235987755982975944 ) ;
#206 = AXIS2_PLACEMENT_3D ( 'NONE', #100, #160, #51 ) ;
#207 = CARTESIAN_POINT ( 'NONE',  ( -1.892735826383168144E-31, 1.834662432702592882, -5.421010862427522170E-17 ) ) ;
#208 = PERSON_AND_ORGANIZATION ( #159, #121 ) ;
#209 = VERTEX_POINT ( 'NONE', #34 ) ;
#210 = CC_DESIGN_PERSON_AND_ORGANIZATION_ASSIGNMENT ( #151, #213, ( #136 ) ) ;
#211 = AXIS2_PLACEMENT_3D ( 'NONE', #46, #202, #32 ) ;
#212 = APPROVAL_DATE_TIME ( #132, #172 ) ;
#213 = PERSON_AND_ORGANIZATION_ROLE ( 'creator' ) ;
#214 = EDGE_CURVE ( 'NONE', #70, #70, #24, .T. ) ;
#215 = EDGE_LOOP ( 'NONE', ( #95 ) ) ;
#216 = AXIS2_PLACEMENT_3D ( 'NONE', #96, #49, #117 ) ;
#217 = FACE_OUTER_BOUND ( 'NONE', #42, .T. ) ;
#218 = CARTESIAN_POINT ( 'NONE',  ( 3.579773715702437870E-14, 1.978999999999998982, 10.25287941790506352 ) ) ;
#219 = PLANE ( 'NONE',  #170 ) ;
#220 = EDGE_LOOP ( 'NONE', ( #77 ) ) ;
#221 = AXIS2_PLACEMENT_3D ( 'NONE', #200, #122, #79 ) ;
#222 = SECURITY_CLASSIFICATION ( '', '', #71 ) ;
#223 = APPLICATION_CONTEXT ( 'configuration controlled 3d designs of mechanical parts and assemblies' ) ;
#224 = CARTESIAN_POINT ( 'NONE',  ( 2.433562493173664138E-13, -7.316389877191761450E-15, 69.70000000000001705 ) ) ;
#225 = APPLICATION_CONTEXT ( 'configuration controlled 3d designs of mechanical parts and assemblies' ) ;
#226 = APPROVAL_STATUS ( 'not_yet_approved' ) ;
#227 = PRODUCT_DEFINITION_SHAPE ( 'NONE', 'NONE',  #169 ) ;
#228 = ADVANCED_BREP_SHAPE_REPRESENTATION ( '321299', ( #25, #188, #48 ), #153 ) ;
#229 = PERSON_AND_ORGANIZATION_ROLE ( 'classification_officer' ) ;
#230 = CIRCLE ( 'NONE', #206, 1.499999999999992673 ) ;
#231 = APPROVAL ( #112, 'UNSPECIFIED' ) ;
#232 = CALENDAR_DATE ( 2021, 26, 11 ) ;
#233 = ORIENTED_EDGE ( 'NONE', *, *, #214, .F. ) ;
#234 = LOCAL_TIME ( 14, 2, 18.00000000000000000, #171 ) ;
#235 = EDGE_LOOP ( 'NONE', ( #61 ) ) ;
#236 = CARTESIAN_POINT ( 'NONE',  ( 3.579773715702437239E-14, -1.076241939529818545E-15, 10.25287941790506174 ) ) ;
#237 = CIRCLE ( 'NONE', #60, 1.978999999999992987 ) ;
#238 = DIRECTION ( 'NONE',  ( -3.491481338843133355E-15, 1.049697256412017316E-16, -1.000000000000000000 ) ) ;
#239 = FACE_OUTER_BOUND ( 'NONE', #215, .T. ) ;
#240 = DIRECTION ( 'NONE',  ( 0.0000000000000000000, 1.000000000000000000, 0.0000000000000000000 ) ) ;
#241 = CARTESIAN_POINT ( 'NONE',  ( 3.579773715702437870E-14, 6.061296401795228867E-15, 10.25287941790506352 ) ) ;
#242 = AXIS2_PLACEMENT_3D ( 'NONE', #198, #10, #65 ) ;
#243 =( LENGTH_UNIT ( ) NAMED_UNIT ( * ) SI_UNIT ( .MILLI., .METRE. ) );
ENDSEC;
END-ISO-10303-21;
