ISO-10303-21;
HEADER;
FILE_DESCRIPTION (( 'STEP AP203' ),
    '1' );
FILE_NAME ('321298.step',
    '2021-11-26T13:02:17',
    ( '' ),
    ( '' ),
    'SwSTEP 2.0',
    'SolidWorks 2019',
    '' );
FILE_SCHEMA (( 'CONFIG_CONTROL_DESIGN' ));
ENDSEC;

DATA;
#1 = DIRECTION ( 'NONE',  ( 3.664998382197393967E-31, 1.000000000000000000, 1.049697256412017316E-16 ) ) ;
#2 = LOCAL_TIME ( 14, 2, 17.00000000000000000, #119 ) ;
#3 = DIRECTION ( 'NONE',  ( 0.0000000000000000000, 1.000000000000000000, 0.0000000000000000000 ) ) ;
#4 = DIRECTION ( 'NONE',  ( -3.491481338843133355E-15, -5.904742801789064814E-16, -1.000000000000000000 ) ) ;
#5 = DIRECTION ( 'NONE',  ( -3.491481338843133355E-15, -5.904742801789064814E-16, -1.000000000000000000 ) ) ;
#6 = AXIS2_PLACEMENT_3D ( 'NONE', #59, #189, #99 ) ;
#7 = CARTESIAN_POINT ( 'NONE',  ( -1.980680208132250906E-30, 1.829662432702592545, -5.672893582723627783E-16 ) ) ;
#8 = FACE_BOUND ( 'NONE', #84, .T. ) ;
#9 = ADVANCED_FACE ( 'NONE', ( #48 ), #118, .T. ) ;
#10 = DATE_AND_TIME ( #223, #91 ) ;
#11 = ORIENTED_EDGE ( 'NONE', *, *, #51, .F. ) ;
#12 = EDGE_LOOP ( 'NONE', ( #141 ) ) ;
#13 = PERSON_AND_ORGANIZATION ( #182, #76 ) ;
#14 = CONICAL_SURFACE ( 'NONE', #62, 1.973999999999999533, 0.5235987755982933756 ) ;
#15 = CC_DESIGN_SECURITY_CLASSIFICATION ( #107, ( #37 ) ) ;
#16 = PLANE ( 'NONE',  #124 ) ;
#17 = DATE_AND_TIME ( #109, #2 ) ;
#18 = CC_DESIGN_PERSON_AND_ORGANIZATION_ASSIGNMENT ( #49, #86, ( #37 ) ) ;
#19 = CIRCLE ( 'NONE', #201, 1.973999999999998867 ) ;
#20 = PRODUCT_DEFINITION_SHAPE ( 'NONE', 'NONE',  #74 ) ;
#21 = PRODUCT ( '321298', '321298', '', ( #140 ) ) ;
#22 = APPLICATION_CONTEXT ( 'configuration controlled 3d designs of mechanical parts and assemblies' ) ;
#23 = VERTEX_POINT ( 'NONE', #45 ) ;
#24 = CARTESIAN_POINT ( 'NONE',  ( 3.869445280877825814E-14, -1.163330317703974832E-15, 11.08253175473057794 ) ) ;
#25 = CYLINDRICAL_SURFACE ( 'NONE', #132, 1.973999999999995758 ) ;
#26 = APPROVAL ( #202, 'UNSPECIFIED' ) ;
#27 = AXIS2_PLACEMENT_3D ( 'NONE', #115, #94, #1 ) ;
#28 = PERSON_AND_ORGANIZATION ( #182, #76 ) ;
#29 = ORIENTED_EDGE ( 'NONE', *, *, #212, .F. ) ;
#30 = APPROVAL_ROLE ( '' ) ;
#31 = DIRECTION ( 'NONE',  ( 0.0000000000000000000, 1.000000000000000000, 0.0000000000000000000 ) ) ;
#32 = CARTESIAN_POINT ( 'NONE',  ( 0.0000000000000000000, 0.0000000000000000000, 0.0000000000000000000 ) ) ;
#33 = EDGE_LOOP ( 'NONE', ( #46 ) ) ;
#34 = APPROVAL_STATUS ( 'not_yet_approved' ) ;
#35 = DIRECTION ( 'NONE',  ( 1.000000000000000000, 0.0000000000000000000, 0.0000000000000000000 ) ) ;
#36 = APPROVAL ( #52, 'UNSPECIFIED' ) ;
#37 = PRODUCT_DEFINITION_FORMATION_WITH_SPECIFIED_SOURCE ( 'ANY', '', #21, .NOT_KNOWN. ) ;
#38 = ADVANCED_FACE ( 'NONE', ( #123 ), #16, .T. ) ;
#39 = AXIS2_PLACEMENT_3D ( 'NONE', #70, #179, #87 ) ;
#40 = APPROVAL_PERSON_ORGANIZATION ( #197, #26, #89 ) ;
#41 = CARTESIAN_POINT ( 'NONE',  ( 3.582797427238715374E-14, 1.973999999999998867, 10.26153967194290750 ) ) ;
#42 = CARTESIAN_POINT ( 'NONE',  ( 3.869445280877825814E-14, 1.499999999999991562, 11.08253175473057794 ) ) ;
#43 = CONICAL_SURFACE ( 'NONE', #6, 1.829662432702592545, 0.5235987755982975944 ) ;
#44 = DIRECTION ( 'NONE',  ( 0.0000000000000000000, 1.000000000000000000, 0.0000000000000000000 ) ) ;
#45 = CARTESIAN_POINT ( 'NONE',  ( 3.582797427238715374E-14, 1.973999999999998867, 10.26153967194290750 ) ) ;
#46 = ORIENTED_EDGE ( 'NONE', *, *, #203, .T. ) ;
#47 = CARTESIAN_POINT ( 'NONE',  ( 0.0000000000000000000, 0.0000000000000000000, 0.0000000000000000000 ) ) ;
#48 = FACE_OUTER_BOUND ( 'NONE', #136, .T. ) ;
#49 = PERSON_AND_ORGANIZATION ( #182, #76 ) ;
#50 = CARTESIAN_POINT ( 'NONE',  ( 2.444036937190193601E-13, -7.347880794884121511E-15, 70.00000000000000000 ) ) ;
#51 = EDGE_CURVE ( 'NONE', #226, #226, #146, .T. ) ;
#52 = APPROVAL_STATUS ( 'not_yet_approved' ) ;
#53 = ORIENTED_EDGE ( 'NONE', *, *, #212, .T. ) ;
#54 = APPROVAL_DATE_TIME ( #105, #26 ) ;
#55 = DIRECTION ( 'NONE',  ( 0.0000000000000000000, 1.000000000000000000, 0.0000000000000000000 ) ) ;
#56 = DATE_AND_TIME ( #220, #93 ) ;
#57 = CIRCLE ( 'NONE', #110, 1.973999999999999533 ) ;
#58 = CC_DESIGN_DATE_AND_TIME_ASSIGNMENT ( #17, #125, ( #107 ) ) ;
#59 = CARTESIAN_POINT ( 'NONE',  ( 3.582813250987869584E-30, 6.059202012213758562E-31, 1.026158499296175113E-15 ) ) ;
#60 = CYLINDRICAL_SURFACE ( 'NONE', #162, 1.499999999999995337 ) ;
#61 = FACE_OUTER_BOUND ( 'NONE', #153, .T. ) ;
#62 = AXIS2_PLACEMENT_3D ( 'NONE', #96, #114, #80 ) ;
#63 = CARTESIAN_POINT ( 'NONE',  ( -1.892735826383161356E-31, 1.829662432702592545, -5.421010862427522170E-17 ) ) ;
#64 = CARTESIAN_POINT ( 'NONE',  ( 8.728703347107835360E-16, 1.973999999999998867, 0.2500000000000000000 ) ) ;
#65 = ORIENTED_EDGE ( 'NONE', *, *, #190, .T. ) ;
#66 = DATE_TIME_ROLE ( 'creation_date' ) ;
#67 = APPROVAL ( #34, 'UNSPECIFIED' ) ;
#68 = CARTESIAN_POINT ( 'NONE',  ( 2.433562493173664138E-13, -7.316389877191761450E-15, 69.70000000000001705 ) ) ;
#69 = AXIS2_PLACEMENT_3D ( 'NONE', #208, #5, #131 ) ;
#70 = CARTESIAN_POINT ( 'NONE',  ( 3.582797427238714743E-14, 6.059175251317780356E-15, 10.26153967194290573 ) ) ;
#71 = APPLICATION_PROTOCOL_DEFINITION ( 'international standard', 'config_control_design', 1994, #22 ) ;
#72 = ORIENTED_EDGE ( 'NONE', *, *, #135, .T. ) ;
#73 = MANIFOLD_SOLID_BREP ( 'Corps-Déplacer/Copier1[2]', #151 ) ;
#74 = PRODUCT_DEFINITION ( 'UNKNOWN', '', #37, #144 ) ;
#75 = PERSON_AND_ORGANIZATION ( #182, #76 ) ;
#76 = ORGANIZATION ( 'UNSPECIFIED', 'UNSPECIFIED', '' ) ;
#77 = ADVANCED_FACE ( 'NONE', ( #192, #175 ), #25, .T. ) ;
#78 = CARTESIAN_POINT ( 'NONE',  ( 3.582797427238715374E-14, -1.077151004020154269E-15, 10.26153967194290750 ) ) ;
#79 = CC_DESIGN_APPROVAL ( #67, ( #74 ) ) ;
#80 = DIRECTION ( 'NONE',  ( 0.0000000000000000000, 1.000000000000000000, 0.0000000000000000000 ) ) ;
#81 = FACE_BOUND ( 'NONE', #219, .T. ) ;
#82 = FACE_OUTER_BOUND ( 'NONE', #238, .T. ) ;
#83 = VERTEX_POINT ( 'NONE', #64 ) ;
#84 = EDGE_LOOP ( 'NONE', ( #177 ) ) ;
#85 = PERSON_AND_ORGANIZATION_ROLE ( 'creator' ) ;
#86 = PERSON_AND_ORGANIZATION_ROLE ( 'design_supplier' ) ;
#87 = DIRECTION ( 'NONE',  ( 2.061629930311483719E-30, -1.000000000000000000, 5.904742801789064814E-16 ) ) ;
#88 = CIRCLE ( 'NONE', #145, 1.499999999999992673 ) ;
#89 = APPROVAL_ROLE ( '' ) ;
#90 = DIRECTION ( 'NONE',  ( -3.664998382197393967E-31, -1.000000000000000000, -1.049697256412017316E-16 ) ) ;
#91 = LOCAL_TIME ( 14, 2, 17.00000000000000000, #161 ) ;
#92 = ADVANCED_FACE ( 'NONE', ( #8, #234 ), #225, .T. ) ;
#93 = LOCAL_TIME ( 14, 2, 17.00000000000000000, #216 ) ;
#94 = DIRECTION ( 'NONE',  ( -3.491481338843133355E-15, 1.049697256412017316E-16, -1.000000000000000000 ) ) ;
#95 = APPROVAL_PERSON_ORGANIZATION ( #13, #36, #241 ) ;
#96 = CARTESIAN_POINT ( 'NONE',  ( 3.582797427238715374E-14, -1.077151004020154269E-15, 10.26153967194290750 ) ) ;
#97 = ADVANCED_FACE ( 'NONE', ( #104, #152 ), #14, .T. ) ;
#98 = DIRECTION ( 'NONE',  ( -3.491481338843133355E-15, -5.904742801789064814E-16, -1.000000000000000000 ) ) ;
#99 = DIRECTION ( 'NONE',  ( 2.061629930311484420E-30, -1.000000000000000000, 5.904742801789064814E-16 ) ) ;
#100 = CARTESIAN_POINT ( 'NONE',  ( 0.0000000000000000000, 0.0000000000000000000, 0.0000000000000000000 ) ) ;
#101 =( NAMED_UNIT ( * ) SI_UNIT ( $, .STERADIAN. ) SOLID_ANGLE_UNIT ( ) );
#102 = EDGE_LOOP ( 'NONE', ( #29 ) ) ;
#103 = PERSON_AND_ORGANIZATION_ROLE ( 'classification_officer' ) ;
#104 = FACE_BOUND ( 'NONE', #233, .T. ) ;
#105 = DATE_AND_TIME ( #156, #111 ) ;
#106 = EDGE_LOOP ( 'NONE', ( #65 ) ) ;
#107 = SECURITY_CLASSIFICATION ( '', '', #121 ) ;
#108 = APPLICATION_PROTOCOL_DEFINITION ( 'international standard', 'config_control_design', 1994, #163 ) ;
#109 = CALENDAR_DATE ( 2021, 26, 11 ) ;
#110 = AXIS2_PLACEMENT_3D ( 'NONE', #78, #230, #3 ) ;
#111 = LOCAL_TIME ( 14, 2, 17.00000000000000000, #143 ) ;
#112 = VERTEX_POINT ( 'NONE', #130 ) ;
#113 = ADVANCED_FACE ( 'NONE', ( #61 ), #166, .T. ) ;
#114 = DIRECTION ( 'NONE',  ( -3.491481338843133355E-15, 1.049697256412017316E-16, -1.000000000000000000 ) ) ;
#115 = CARTESIAN_POINT ( 'NONE',  ( 3.582797427238714743E-14, 1.973999999999998867, 10.26153967194290573 ) ) ;
#116 = EDGE_LOOP ( 'NONE', ( #215 ) ) ;
#117 = DIRECTION ( 'NONE',  ( -2.048861642965145799E-30, 1.000000000000000000, -6.041653443434931558E-16 ) ) ;
#118 = PLANE ( 'NONE',  #39 ) ;
#119 = COORDINATED_UNIVERSAL_TIME_OFFSET ( 1, 0, .AHEAD. ) ;
#120 = DIRECTION ( 'NONE',  ( -3.491481338843133355E-15, 1.049697256412017316E-16, -1.000000000000000000 ) ) ;
#121 = SECURITY_CLASSIFICATION_LEVEL ( 'unclassified' ) ;
#122 = ORIENTED_EDGE ( 'NONE', *, *, #196, .F. ) ;
#123 = FACE_OUTER_BOUND ( 'NONE', #198, .T. ) ;
#124 = AXIS2_PLACEMENT_3D ( 'NONE', #200, #195, #90 ) ;
#125 = DATE_TIME_ROLE ( 'classification_date' ) ;
#126 = CC_DESIGN_PERSON_AND_ORGANIZATION_ASSIGNMENT ( #28, #85, ( #37 ) ) ;
#127 = AXIS2_PLACEMENT_3D ( 'NONE', #68, #120, #31 ) ;
#128 = CARTESIAN_POINT ( 'NONE',  ( 2.444036937190193601E-13, 1.199999999999990186, 70.00000000000000000 ) ) ;
#129 = PRODUCT_RELATED_PRODUCT_CATEGORY ( 'detail', '', ( #21 ) ) ;
#130 = CARTESIAN_POINT ( 'NONE',  ( 2.433562493173664138E-13, 1.499999999999990230, 69.70000000000001705 ) ) ;
#131 = DIRECTION ( 'NONE',  ( -2.061629930311484070E-30, 1.000000000000000000, -5.904742801789064814E-16 ) ) ;
#132 = AXIS2_PLACEMENT_3D ( 'NONE', #100, #174, #155 ) ;
#133 = CARTESIAN_POINT ( 'NONE',  ( 3.582797427238716005E-14, 6.059175251317781934E-15, 10.26153967194290928 ) ) ;
#134 = VERTEX_POINT ( 'NONE', #63 ) ;
#135 = EDGE_CURVE ( 'NONE', #83, #83, #19, .T. ) ;
#136 = EDGE_LOOP ( 'NONE', ( #138 ) ) ;
#137 = APPROVAL_DATE_TIME ( #181, #36 ) ;
#138 = ORIENTED_EDGE ( 'NONE', *, *, #242, .F. ) ;
#139 = ORIENTED_EDGE ( 'NONE', *, *, #242, .T. ) ;
#140 = MECHANICAL_CONTEXT ( 'NONE', #22, 'mechanical' ) ;
#141 = ORIENTED_EDGE ( 'NONE', *, *, #203, .F. ) ;
#142 = PERSON_AND_ORGANIZATION ( #182, #76 ) ;
#143 = COORDINATED_UNIVERSAL_TIME_OFFSET ( 1, 0, .AHEAD. ) ;
#144 = DESIGN_CONTEXT ( 'detailed design', #163, 'design' ) ;
#145 = AXIS2_PLACEMENT_3D ( 'NONE', #24, #188, #168 ) ;
#146 = CIRCLE ( 'NONE', #165, 1.199999999999997513 ) ;
#147 = DIRECTION ( 'NONE',  ( 3.664998382197393967E-31, 1.000000000000000000, 1.049697256412017316E-16 ) ) ;
#148 = FACE_OUTER_BOUND ( 'NONE', #106, .T. ) ;
#149 = DIRECTION ( 'NONE',  ( -3.491481338843133355E-15, -5.904742801789064814E-16, -1.000000000000000000 ) ) ;
#150 = CARTESIAN_POINT ( 'NONE',  ( 8.728703347107875789E-16, 1.476185700447273352E-16, 0.2500000000000012212 ) ) ;
#151 = CLOSED_SHELL ( 'NONE', ( #9, #77, #231, #113 ) ) ;
#152 = FACE_OUTER_BOUND ( 'NONE', #116, .T. ) ;
#153 = EDGE_LOOP ( 'NONE', ( #158 ) ) ;
#154 = PERSON_AND_ORGANIZATION ( #182, #76 ) ;
#155 = DIRECTION ( 'NONE',  ( -2.061629930311483369E-30, 1.000000000000000000, -5.904742801789063827E-16 ) ) ;
#156 = CALENDAR_DATE ( 2021, 26, 11 ) ;
#157 = DIRECTION ( 'NONE',  ( -3.491481338843133355E-15, 1.049697256412017316E-16, -1.000000000000000000 ) ) ;
#158 = ORIENTED_EDGE ( 'NONE', *, *, #196, .T. ) ;
#159 = ADVANCED_BREP_SHAPE_REPRESENTATION ( '321298', ( #235, #73, #204 ), #194 ) ;
#160 = APPROVAL_DATE_TIME ( #10, #67 ) ;
#161 = COORDINATED_UNIVERSAL_TIME_OFFSET ( 1, 0, .AHEAD. ) ;
#162 = AXIS2_PLACEMENT_3D ( 'NONE', #47, #169, #147 ) ;
#163 = APPLICATION_CONTEXT ( 'configuration controlled 3d designs of mechanical parts and assemblies' ) ;
#164 = CC_DESIGN_DATE_AND_TIME_ASSIGNMENT ( #56, #66, ( #74 ) ) ;
#165 = AXIS2_PLACEMENT_3D ( 'NONE', #50, #157, #55 ) ;
#166 = PLANE ( 'NONE',  #237 ) ;
#167 = DIRECTION ( 'NONE',  ( -2.061629930311483719E-30, 1.000000000000000000, -5.904742801789064814E-16 ) ) ;
#168 = DIRECTION ( 'NONE',  ( 0.0000000000000000000, 1.000000000000000000, 0.0000000000000000000 ) ) ;
#169 = DIRECTION ( 'NONE',  ( -3.491481338843133355E-15, 1.049697256412017316E-16, -1.000000000000000000 ) ) ;
#170 = ADVANCED_FACE ( 'NONE', ( #148 ), #210, .T. ) ;
#171 = FACE_OUTER_BOUND ( 'NONE', #33, .T. ) ;
#172 = CIRCLE ( 'NONE', #180, 1.973999999999992649 ) ;
#173 = CC_DESIGN_APPROVAL ( #26, ( #107 ) ) ;
#174 = DIRECTION ( 'NONE',  ( -3.491481338843133355E-15, -5.904742801789064814E-16, -1.000000000000000000 ) ) ;
#175 = FACE_OUTER_BOUND ( 'NONE', #213, .T. ) ;
#176 = CC_DESIGN_PERSON_AND_ORGANIZATION_ASSIGNMENT ( #236, #193, ( #21 ) ) ;
#177 = ORIENTED_EDGE ( 'NONE', *, *, #51, .T. ) ;
#178 = PERSON_AND_ORGANIZATION_ROLE ( 'creator' ) ;
#179 = DIRECTION ( 'NONE',  ( 3.491481338843133355E-15, 5.904742801789064814E-16, 1.000000000000000000 ) ) ;
#180 = AXIS2_PLACEMENT_3D ( 'NONE', #133, #149, #211 ) ;
#181 = DATE_AND_TIME ( #214, #229 ) ;
#182 = PERSON ( 'UNSPECIFIED', 'UNSPECIFIED', 'UNSPECIFIED', ('UNSPECIFIED'), ('UNSPECIFIED'), ('UNSPECIFIED') ) ;
#183 = CLOSED_SHELL ( 'NONE', ( #38, #92, #224, #97, #170 ) ) ;
#184 = UNCERTAINTY_MEASURE_WITH_UNIT (LENGTH_MEASURE( 1.000000000000000082E-05 ), #228, 'distance_accuracy_value', 'NONE');
#185 = CC_DESIGN_PERSON_AND_ORGANIZATION_ASSIGNMENT ( #154, #103, ( #107 ) ) ;
#186 = CC_DESIGN_PERSON_AND_ORGANIZATION_ASSIGNMENT ( #75, #178, ( #74 ) ) ;
#187 = VERTEX_POINT ( 'NONE', #42 ) ;
#188 = DIRECTION ( 'NONE',  ( -3.491481338843133355E-15, 1.049697256412017316E-16, -1.000000000000000000 ) ) ;
#189 = DIRECTION ( 'NONE',  ( 3.491481338843133355E-15, 5.904742801789064814E-16, 1.000000000000000000 ) ) ;
#190 = EDGE_CURVE ( 'NONE', #205, #205, #57, .T. ) ;
#191 =( NAMED_UNIT ( * ) PLANE_ANGLE_UNIT ( ) SI_UNIT ( $, .RADIAN. ) );
#192 = FACE_OUTER_BOUND ( 'NONE', #240, .T. ) ;
#193 = PERSON_AND_ORGANIZATION_ROLE ( 'design_owner' ) ;
#194 =( GEOMETRIC_REPRESENTATION_CONTEXT ( 3 ) GLOBAL_UNCERTAINTY_ASSIGNED_CONTEXT ( ( #184 ) ) GLOBAL_UNIT_ASSIGNED_CONTEXT ( ( #228, #191, #101 ) ) REPRESENTATION_CONTEXT ( 'NONE', 'WORKASPACE' ) );
#195 = DIRECTION ( 'NONE',  ( 3.491481338843133355E-15, -1.049697256412017316E-16, 1.000000000000000000 ) ) ;
#196 = EDGE_CURVE ( 'NONE', #134, #134, #222, .T. ) ;
#197 = PERSON_AND_ORGANIZATION ( #182, #76 ) ;
#198 = EDGE_LOOP ( 'NONE', ( #11 ) ) ;
#199 = SHAPE_DEFINITION_REPRESENTATION ( #20, #159 ) ;
#200 = CARTESIAN_POINT ( 'NONE',  ( 2.444036937190193601E-13, -7.347880794884121511E-15, 70.00000000000000000 ) ) ;
#201 = AXIS2_PLACEMENT_3D ( 'NONE', #150, #98, #117 ) ;
#202 = APPROVAL_STATUS ( 'not_yet_approved' ) ;
#203 = EDGE_CURVE ( 'NONE', #112, #112, #207, .T. ) ;
#204 = AXIS2_PLACEMENT_3D ( 'NONE', #32, #239, #35 ) ;
#205 = VERTEX_POINT ( 'NONE', #41 ) ;
#206 = FACE_OUTER_BOUND ( 'NONE', #102, .T. ) ;
#207 = CIRCLE ( 'NONE', #221, 1.499999999999997558 ) ;
#208 = CARTESIAN_POINT ( 'NONE',  ( 3.582813250987869584E-30, 6.059202012213758562E-31, 1.026158499296175113E-15 ) ) ;
#209 = CC_DESIGN_APPROVAL ( #36, ( #37 ) ) ;
#210 = PLANE ( 'NONE',  #27 ) ;
#211 = DIRECTION ( 'NONE',  ( -3.122074884518327100E-30, 1.000000000000000000, -8.787859554087201413E-16 ) ) ;
#212 = EDGE_CURVE ( 'NONE', #187, #187, #88, .T. ) ;
#213 = EDGE_LOOP ( 'NONE', ( #217 ) ) ;
#214 = CALENDAR_DATE ( 2021, 26, 11 ) ;
#215 = ORIENTED_EDGE ( 'NONE', *, *, #190, .F. ) ;
#216 = COORDINATED_UNIVERSAL_TIME_OFFSET ( 1, 0, .AHEAD. ) ;
#217 = ORIENTED_EDGE ( 'NONE', *, *, #135, .F. ) ;
#218 = COORDINATED_UNIVERSAL_TIME_OFFSET ( 1, 0, .AHEAD. ) ;
#219 = EDGE_LOOP ( 'NONE', ( #122 ) ) ;
#220 = CALENDAR_DATE ( 2021, 26, 11 ) ;
#221 = AXIS2_PLACEMENT_3D ( 'NONE', #227, #232, #44 ) ;
#222 = CIRCLE ( 'NONE', #69, 1.829662432702592545 ) ;
#223 = CALENDAR_DATE ( 2021, 26, 11 ) ;
#224 = ADVANCED_FACE ( 'NONE', ( #171, #206 ), #60, .T. ) ;
#225 = CONICAL_SURFACE ( 'NONE', #127, 1.499999999999997558, 0.7853981633974573828 ) ;
#226 = VERTEX_POINT ( 'NONE', #128 ) ;
#227 = CARTESIAN_POINT ( 'NONE',  ( 2.433562493173664138E-13, -7.316389877191761450E-15, 69.70000000000001705 ) ) ;
#228 =( LENGTH_UNIT ( ) NAMED_UNIT ( * ) SI_UNIT ( .MILLI., .METRE. ) );
#229 = LOCAL_TIME ( 14, 2, 17.00000000000000000, #218 ) ;
#230 = DIRECTION ( 'NONE',  ( -3.491481338843133355E-15, 1.049697256412017316E-16, -1.000000000000000000 ) ) ;
#231 = ADVANCED_FACE ( 'NONE', ( #82, #81 ), #43, .T. ) ;
#232 = DIRECTION ( 'NONE',  ( -3.491481338843133355E-15, 1.049697256412017316E-16, -1.000000000000000000 ) ) ;
#233 = EDGE_LOOP ( 'NONE', ( #53 ) ) ;
#234 = FACE_OUTER_BOUND ( 'NONE', #12, .T. ) ;
#235 = MANIFOLD_SOLID_BREP ( 'Corps-Déplacer/Copier1[1]', #183 ) ;
#236 = PERSON_AND_ORGANIZATION ( #182, #76 ) ;
#237 = AXIS2_PLACEMENT_3D ( 'NONE', #7, #4, #167 ) ;
#238 = EDGE_LOOP ( 'NONE', ( #72 ) ) ;
#239 = DIRECTION ( 'NONE',  ( 0.0000000000000000000, 0.0000000000000000000, 1.000000000000000000 ) ) ;
#240 = EDGE_LOOP ( 'NONE', ( #139 ) ) ;
#241 = APPROVAL_ROLE ( '' ) ;
#242 = EDGE_CURVE ( 'NONE', #23, #23, #172, .T. ) ;
#243 = APPROVAL_PERSON_ORGANIZATION ( #142, #67, #30 ) ;
ENDSEC;
END-ISO-10303-21;
