ISO-10303-21;
HEADER;
FILE_DESCRIPTION (( 'STEP AP203' ),
    '1' );
FILE_NAME ('321297.step',
    '2021-11-26T13:02:17',
    ( '' ),
    ( '' ),
    'SwSTEP 2.0',
    'SolidWorks 2019',
    '' );
FILE_SCHEMA (( 'CONFIG_CONTROL_DESIGN' ));
ENDSEC;

DATA;
#1 = APPROVAL_PERSON_ORGANIZATION ( #96, #232, #57 ) ;
#2 = APPROVAL_STATUS ( 'not_yet_approved' ) ;
#3 = DATE_TIME_ROLE ( 'creation_date' ) ;
#4 = CALENDAR_DATE ( 2021, 26, 11 ) ;
#5 = EDGE_LOOP ( 'NONE', ( #195 ) ) ;
#6 = CARTESIAN_POINT ( 'NONE',  ( 3.585821138774992248E-14, 1.968999999999998973, 10.27019992598075149 ) ) ;
#7 = CYLINDRICAL_SURFACE ( 'NONE', #98, 1.499999999999995337 ) ;
#8 = DESIGN_CONTEXT ( 'detailed design', #133, 'design' ) ;
#9 = FACE_OUTER_BOUND ( 'NONE', #164, .T. ) ;
#10 = ADVANCED_FACE ( 'NONE', ( #156 ), #65, .T. ) ;
#11 = PLANE ( 'NONE',  #204 ) ;
#12 = CARTESIAN_POINT ( 'NONE',  ( 3.585821138774992879E-14, -1.078060068510489993E-15, 10.27019992598075326 ) ) ;
#13 = PRODUCT_RELATED_PRODUCT_CATEGORY ( 'detail', '', ( #78 ) ) ;
#14 = DIRECTION ( 'NONE',  ( -3.491481338843133355E-15, 1.049697256412017316E-16, -1.000000000000000000 ) ) ;
#15 = AXIS2_PLACEMENT_3D ( 'NONE', #178, #175, #62 ) ;
#16 = DATE_AND_TIME ( #171, #147 ) ;
#17 = PERSON_AND_ORGANIZATION_ROLE ( 'classification_officer' ) ;
#18 = COORDINATED_UNIVERSAL_TIME_OFFSET ( 1, 0, .AHEAD. ) ;
#19 = EDGE_LOOP ( 'NONE', ( #152 ) ) ;
#20 = PERSON_AND_ORGANIZATION ( #21, #223 ) ;
#21 = PERSON ( 'UNSPECIFIED', 'UNSPECIFIED', 'UNSPECIFIED', ('UNSPECIFIED'), ('UNSPECIFIED'), ('UNSPECIFIED') ) ;
#22 = CONICAL_SURFACE ( 'NONE', #206, 1.499999999999997558, 0.7853981633974573828 ) ;
#23 = DIRECTION ( 'NONE',  ( -2.059170368042056944E-30, 1.000000000000000000, -5.897698335470244592E-16 ) ) ;
#24 = EDGE_LOOP ( 'NONE', ( #138 ) ) ;
#25 = ORIENTED_EDGE ( 'NONE', *, *, #212, .F. ) ;
#26 = EDGE_LOOP ( 'NONE', ( #135 ) ) ;
#27 = LOCAL_TIME ( 14, 2, 17.00000000000000000, #132 ) ;
#28 = EDGE_LOOP ( 'NONE', ( #104 ) ) ;
#29 =( GEOMETRIC_REPRESENTATION_CONTEXT ( 3 ) GLOBAL_UNCERTAINTY_ASSIGNED_CONTEXT ( ( #196 ) ) GLOBAL_UNIT_ASSIGNED_CONTEXT ( ( #93, #217, #222 ) ) REPRESENTATION_CONTEXT ( 'NONE', 'WORKASPACE' ) );
#30 = CC_DESIGN_DATE_AND_TIME_ASSIGNMENT ( #79, #150, ( #180 ) ) ;
#31 = DIRECTION ( 'NONE',  ( 3.491481338843133355E-15, 5.897698335470244592E-16, 1.000000000000000000 ) ) ;
#32 = CARTESIAN_POINT ( 'NONE',  ( 2.444036937190193601E-13, -7.347880794884121511E-15, 70.00000000000000000 ) ) ;
#33 = APPLICATION_CONTEXT ( 'configuration controlled 3d designs of mechanical parts and assemblies' ) ;
#34 = FACE_OUTER_BOUND ( 'NONE', #19, .T. ) ;
#35 = APPROVAL ( #77, 'UNSPECIFIED' ) ;
#36 = AXIS2_PLACEMENT_3D ( 'NONE', #32, #70, #181 ) ;
#37 = DIRECTION ( 'NONE',  ( 0.0000000000000000000, 0.0000000000000000000, 1.000000000000000000 ) ) ;
#38 = APPLICATION_PROTOCOL_DEFINITION ( 'international standard', 'config_control_design', 1994, #133 ) ;
#39 = CIRCLE ( 'NONE', #15, 1.499999999999992673 ) ;
#40 = DATE_AND_TIME ( #207, #27 ) ;
#41 = FACE_OUTER_BOUND ( 'NONE', #174, .T. ) ;
#42 = AXIS2_PLACEMENT_3D ( 'NONE', #122, #83, #23 ) ;
#43 = DIRECTION ( 'NONE',  ( -2.059170368042056944E-30, 1.000000000000000000, -5.897698335470244592E-16 ) ) ;
#44 = EDGE_LOOP ( 'NONE', ( #210 ) ) ;
#45 = CC_DESIGN_DATE_AND_TIME_ASSIGNMENT ( #16, #3, ( #97 ) ) ;
#46 = FACE_OUTER_BOUND ( 'NONE', #28, .T. ) ;
#47 = DIRECTION ( 'NONE',  ( -3.491481338843133355E-15, -5.897698335470244592E-16, -1.000000000000000000 ) ) ;
#48 = DIRECTION ( 'NONE',  ( 0.0000000000000000000, 1.000000000000000000, 0.0000000000000000000 ) ) ;
#49 = AXIS2_PLACEMENT_3D ( 'NONE', #6, #124, #84 ) ;
#50 = VERTEX_POINT ( 'NONE', #71 ) ;
#51 = DIRECTION ( 'NONE',  ( -2.059170368042056944E-30, 1.000000000000000000, -5.897698335470245578E-16 ) ) ;
#52 = EDGE_CURVE ( 'NONE', #50, #50, #94, .T. ) ;
#53 = ADVANCED_BREP_SHAPE_REPRESENTATION ( '321297', ( #66, #146, #241 ), #29 ) ;
#54 = LOCAL_TIME ( 14, 2, 17.00000000000000000, #18 ) ;
#55 = PERSON_AND_ORGANIZATION_ROLE ( 'design_supplier' ) ;
#56 = COORDINATED_UNIVERSAL_TIME_OFFSET ( 1, 0, .AHEAD. ) ;
#57 = APPROVAL_ROLE ( '' ) ;
#58 = ORIENTED_EDGE ( 'NONE', *, *, #59, .F. ) ;
#59 = EDGE_CURVE ( 'NONE', #143, #143, #39, .T. ) ;
#60 = ORIENTED_EDGE ( 'NONE', *, *, #52, .T. ) ;
#61 = AXIS2_PLACEMENT_3D ( 'NONE', #163, #47, #51 ) ;
#62 = DIRECTION ( 'NONE',  ( 0.0000000000000000000, 1.000000000000000000, 0.0000000000000000000 ) ) ;
#63 = APPROVAL ( #115, 'UNSPECIFIED' ) ;
#64 = FACE_BOUND ( 'NONE', #157, .T. ) ;
#65 = PLANE ( 'NONE',  #192 ) ;
#66 = MANIFOLD_SOLID_BREP ( 'Corps-Déplacer/Copier1[1]', #114 ) ;
#67 = FACE_BOUND ( 'NONE', #72, .T. ) ;
#68 = DIRECTION ( 'NONE',  ( -3.491481338843133355E-15, 1.049697256412017316E-16, -1.000000000000000000 ) ) ;
#69 = ADVANCED_FACE ( 'NONE', ( #41 ), #215, .T. ) ;
#70 = DIRECTION ( 'NONE',  ( -3.491481338843133355E-15, 1.049697256412017316E-16, -1.000000000000000000 ) ) ;
#71 = CARTESIAN_POINT ( 'NONE',  ( 3.585821138774992879E-14, 1.968999999999998973, 10.27019992598075326 ) ) ;
#72 = EDGE_LOOP ( 'NONE', ( #169 ) ) ;
#73 = DIRECTION ( 'NONE',  ( -2.054064440433315069E-30, 1.000000000000000000, -5.781677405331540076E-16 ) ) ;
#74 = APPROVAL_PERSON_ORGANIZATION ( #113, #63, #188 ) ;
#75 = CALENDAR_DATE ( 2021, 26, 11 ) ;
#76 = CC_DESIGN_PERSON_AND_ORGANIZATION_ASSIGNMENT ( #187, #148, ( #97 ) ) ;
#77 = APPROVAL_STATUS ( 'not_yet_approved' ) ;
#78 = PRODUCT ( '321297', '321297', '', ( #190 ) ) ;
#79 = DATE_AND_TIME ( #4, #108 ) ;
#80 = CLOSED_SHELL ( 'NONE', ( #219, #166, #128, #92 ) ) ;
#81 = CC_DESIGN_PERSON_AND_ORGANIZATION_ASSIGNMENT ( #243, #129, ( #78 ) ) ;
#82 = DIRECTION ( 'NONE',  ( -3.491481338843133355E-15, 1.049697256412017316E-16, -1.000000000000000000 ) ) ;
#83 = DIRECTION ( 'NONE',  ( -3.491481338843133355E-15, -5.897698335470244592E-16, -1.000000000000000000 ) ) ;
#84 = DIRECTION ( 'NONE',  ( 3.664998382197393967E-31, 1.000000000000000000, 1.049697256412017316E-16 ) ) ;
#85 = EDGE_CURVE ( 'NONE', #141, #141, #101, .T. ) ;
#86 = APPROVAL_PERSON_ORGANIZATION ( #20, #35, #168 ) ;
#87 = CARTESIAN_POINT ( 'NONE',  ( 3.585821138774993510E-14, 6.057054100840331845E-15, 10.27019992598075504 ) ) ;
#88 = FACE_OUTER_BOUND ( 'NONE', #24, .T. ) ;
#89 = CARTESIAN_POINT ( 'NONE',  ( 2.433562493173664138E-13, -7.316389877191761450E-15, 69.70000000000001705 ) ) ;
#90 = CC_DESIGN_APPROVAL ( #35, ( #151 ) ) ;
#91 = DIRECTION ( 'NONE',  ( -3.491481338843133355E-15, 1.049697256412017316E-16, -1.000000000000000000 ) ) ;
#92 = ADVANCED_FACE ( 'NONE', ( #191 ), #176, .T. ) ;
#93 =( LENGTH_UNIT ( ) NAMED_UNIT ( * ) SI_UNIT ( .MILLI., .METRE. ) );
#94 = CIRCLE ( 'NONE', #216, 1.968999999999999861 ) ;
#95 = SHAPE_DEFINITION_REPRESENTATION ( #154, #53 ) ;
#96 = PERSON_AND_ORGANIZATION ( #21, #223 ) ;
#97 = PRODUCT_DEFINITION ( 'UNKNOWN', '', #151, #8 ) ;
#98 = AXIS2_PLACEMENT_3D ( 'NONE', #193, #103, #234 ) ;
#99 = APPROVAL_DATE_TIME ( #225, #63 ) ;
#100 = PERSON_AND_ORGANIZATION ( #21, #223 ) ;
#101 = CIRCLE ( 'NONE', #227, 1.824662432702592874 ) ;
#102 = EDGE_LOOP ( 'NONE', ( #145 ) ) ;
#103 = DIRECTION ( 'NONE',  ( -3.491481338843133355E-15, 1.049697256412017316E-16, -1.000000000000000000 ) ) ;
#104 = ORIENTED_EDGE ( 'NONE', *, *, #162, .T. ) ;
#105 = CARTESIAN_POINT ( 'NONE',  ( 3.568017230462396838E-30, 6.026980309738571430E-31, 1.021920750590241616E-15 ) ) ;
#106 = CARTESIAN_POINT ( 'NONE',  ( 3.585821138774992879E-14, 1.968999999999998973, 10.27019992598075326 ) ) ;
#107 = FACE_OUTER_BOUND ( 'NONE', #5, .T. ) ;
#108 = LOCAL_TIME ( 14, 2, 17.00000000000000000, #172 ) ;
#109 = CARTESIAN_POINT ( 'NONE',  ( 3.585821138774992248E-14, 6.057054100840331056E-15, 10.27019992598075149 ) ) ;
#110 = CC_DESIGN_PERSON_AND_ORGANIZATION_ASSIGNMENT ( #100, #17, ( #180 ) ) ;
#111 = VERTEX_POINT ( 'NONE', #183 ) ;
#112 = CARTESIAN_POINT ( 'NONE',  ( 2.433562493173664138E-13, -7.316389877191761450E-15, 69.70000000000001705 ) ) ;
#113 = PERSON_AND_ORGANIZATION ( #21, #223 ) ;
#114 = CLOSED_SHELL ( 'NONE', ( #10, #173, #120, #239, #69 ) ) ;
#115 = APPROVAL_STATUS ( 'not_yet_approved' ) ;
#116 = SECURITY_CLASSIFICATION_LEVEL ( 'unclassified' ) ;
#117 = DIRECTION ( 'NONE',  ( -3.491481338843133355E-15, -5.897698335470244592E-16, -1.000000000000000000 ) ) ;
#118 = AXIS2_PLACEMENT_3D ( 'NONE', #12, #68, #238 ) ;
#119 = FACE_OUTER_BOUND ( 'NONE', #155, .T. ) ;
#120 = ADVANCED_FACE ( 'NONE', ( #9, #119 ), #7, .T. ) ;
#121 = DIRECTION ( 'NONE',  ( 0.0000000000000000000, 1.000000000000000000, 0.0000000000000000000 ) ) ;
#122 = CARTESIAN_POINT ( 'NONE',  ( -1.973282197869514883E-30, 1.824662432702592874, -5.651704839193960297E-16 ) ) ;
#123 = CIRCLE ( 'NONE', #36, 1.199999999999997513 ) ;
#124 = DIRECTION ( 'NONE',  ( -3.491481338843133355E-15, 1.049697256412017316E-16, -1.000000000000000000 ) ) ;
#125 = CARTESIAN_POINT ( 'NONE',  ( 8.728703347107873817E-16, 1.474424583867568050E-16, 0.2500000000000011657 ) ) ;
#126 = VERTEX_POINT ( 'NONE', #106 ) ;
#127 = AXIS2_PLACEMENT_3D ( 'NONE', #198, #230, #214 ) ;
#128 = ADVANCED_FACE ( 'NONE', ( #139, #64 ), #237, .T. ) ;
#129 = PERSON_AND_ORGANIZATION_ROLE ( 'design_owner' ) ;
#130 = APPROVAL_DATE_TIME ( #149, #35 ) ;
#131 = CC_DESIGN_APPROVAL ( #63, ( #97 ) ) ;
#132 = COORDINATED_UNIVERSAL_TIME_OFFSET ( 1, 0, .AHEAD. ) ;
#133 = APPLICATION_CONTEXT ( 'configuration controlled 3d designs of mechanical parts and assemblies' ) ;
#134 = EDGE_LOOP ( 'NONE', ( #213 ) ) ;
#135 = ORIENTED_EDGE ( 'NONE', *, *, #194, .F. ) ;
#136 = CONICAL_SURFACE ( 'NONE', #118, 1.968999999999999861, 0.5235987755982939307 ) ;
#137 = DIRECTION ( 'NONE',  ( -3.664998382197393967E-31, -1.000000000000000000, -1.049697256412017316E-16 ) ) ;
#138 = ORIENTED_EDGE ( 'NONE', *, *, #162, .F. ) ;
#139 = FACE_OUTER_BOUND ( 'NONE', #102, .T. ) ;
#140 = VERTEX_POINT ( 'NONE', #202 ) ;
#141 = VERTEX_POINT ( 'NONE', #220 ) ;
#142 = DIRECTION ( 'NONE',  ( 2.059170368042056944E-30, -1.000000000000000000, 5.897698335470244592E-16 ) ) ;
#143 = VERTEX_POINT ( 'NONE', #236 ) ;
#144 = AXIS2_PLACEMENT_3D ( 'NONE', #87, #233, #179 ) ;
#145 = ORIENTED_EDGE ( 'NONE', *, *, #208, .T. ) ;
#146 = MANIFOLD_SOLID_BREP ( 'Corps-Déplacer/Copier1[2]', #80 ) ;
#147 = LOCAL_TIME ( 14, 2, 17.00000000000000000, #224 ) ;
#148 = PERSON_AND_ORGANIZATION_ROLE ( 'creator' ) ;
#149 = DATE_AND_TIME ( #167, #185 ) ;
#150 = DATE_TIME_ROLE ( 'classification_date' ) ;
#151 = PRODUCT_DEFINITION_FORMATION_WITH_SPECIFIED_SOURCE ( 'ANY', '', #78, .NOT_KNOWN. ) ;
#152 = ORIENTED_EDGE ( 'NONE', *, *, #52, .F. ) ;
#153 = CARTESIAN_POINT ( 'NONE',  ( 2.444036937190193601E-13, -7.347880794884121511E-15, 70.00000000000000000 ) ) ;
#154 = PRODUCT_DEFINITION_SHAPE ( 'NONE', 'NONE',  #97 ) ;
#155 = EDGE_LOOP ( 'NONE', ( #58 ) ) ;
#156 = FACE_OUTER_BOUND ( 'NONE', #26, .T. ) ;
#157 = EDGE_LOOP ( 'NONE', ( #221 ) ) ;
#158 = DIRECTION ( 'NONE',  ( 0.0000000000000000000, 1.000000000000000000, 0.0000000000000000000 ) ) ;
#159 = AXIS2_PLACEMENT_3D ( 'NONE', #89, #14, #158 ) ;
#160 = DIRECTION ( 'NONE',  ( -3.491481338843133355E-15, -5.897698335470244592E-16, -1.000000000000000000 ) ) ;
#161 = CARTESIAN_POINT ( 'NONE',  ( 0.0000000000000000000, 0.0000000000000000000, 0.0000000000000000000 ) ) ;
#162 = EDGE_CURVE ( 'NONE', #126, #126, #231, .T. ) ;
#163 = CARTESIAN_POINT ( 'NONE',  ( 0.0000000000000000000, 0.0000000000000000000, 0.0000000000000000000 ) ) ;
#164 = EDGE_LOOP ( 'NONE', ( #197 ) ) ;
#165 = FACE_OUTER_BOUND ( 'NONE', #228, .T. ) ;
#166 = ADVANCED_FACE ( 'NONE', ( #46, #107 ), #182, .T. ) ;
#167 = CALENDAR_DATE ( 2021, 26, 11 ) ;
#168 = APPROVAL_ROLE ( '' ) ;
#169 = ORIENTED_EDGE ( 'NONE', *, *, #194, .T. ) ;
#170 = CIRCLE ( 'NONE', #159, 1.499999999999997558 ) ;
#171 = CALENDAR_DATE ( 2021, 26, 11 ) ;
#172 = COORDINATED_UNIVERSAL_TIME_OFFSET ( 1, 0, .AHEAD. ) ;
#173 = ADVANCED_FACE ( 'NONE', ( #67, #165 ), #22, .T. ) ;
#174 = EDGE_LOOP ( 'NONE', ( #60 ) ) ;
#175 = DIRECTION ( 'NONE',  ( -3.491481338843133355E-15, 1.049697256412017316E-16, -1.000000000000000000 ) ) ;
#176 = PLANE ( 'NONE',  #42 ) ;
#177 = CC_DESIGN_APPROVAL ( #232, ( #180 ) ) ;
#178 = CARTESIAN_POINT ( 'NONE',  ( 3.869445280877825814E-14, -1.163330317703974832E-15, 11.08253175473057794 ) ) ;
#179 = DIRECTION ( 'NONE',  ( -3.130002956850775545E-30, 1.000000000000000000, -8.810175093838564634E-16 ) ) ;
#180 = SECURITY_CLASSIFICATION ( '', '', #116 ) ;
#181 = DIRECTION ( 'NONE',  ( 0.0000000000000000000, 1.000000000000000000, 0.0000000000000000000 ) ) ;
#182 = CYLINDRICAL_SURFACE ( 'NONE', #61, 1.968999999999995865 ) ;
#183 = CARTESIAN_POINT ( 'NONE',  ( 2.433562493173664138E-13, 1.499999999999990230, 69.70000000000001705 ) ) ;
#184 = CC_DESIGN_PERSON_AND_ORGANIZATION_ASSIGNMENT ( #242, #226, ( #151 ) ) ;
#185 = LOCAL_TIME ( 14, 2, 17.00000000000000000, #56 ) ;
#186 = APPROVAL_DATE_TIME ( #40, #232 ) ;
#187 = PERSON_AND_ORGANIZATION ( #21, #223 ) ;
#188 = APPROVAL_ROLE ( '' ) ;
#189 = DIRECTION ( 'NONE',  ( 1.000000000000000000, 0.0000000000000000000, 0.0000000000000000000 ) ) ;
#190 = MECHANICAL_CONTEXT ( 'NONE', #33, 'mechanical' ) ;
#191 = FACE_OUTER_BOUND ( 'NONE', #44, .T. ) ;
#192 = AXIS2_PLACEMENT_3D ( 'NONE', #153, #209, #137 ) ;
#193 = CARTESIAN_POINT ( 'NONE',  ( 0.0000000000000000000, 0.0000000000000000000, 0.0000000000000000000 ) ) ;
#194 = EDGE_CURVE ( 'NONE', #203, #203, #123, .T. ) ;
#195 = ORIENTED_EDGE ( 'NONE', *, *, #208, .F. ) ;
#196 = UNCERTAINTY_MEASURE_WITH_UNIT (LENGTH_MEASURE( 1.000000000000000082E-05 ), #93, 'distance_accuracy_value', 'NONE');
#197 = ORIENTED_EDGE ( 'NONE', *, *, #212, .T. ) ;
#198 = CARTESIAN_POINT ( 'NONE',  ( 3.568017230462396838E-30, 6.026980309738571430E-31, 1.021920750590241616E-15 ) ) ;
#199 = CARTESIAN_POINT ( 'NONE',  ( 2.444036937190193601E-13, 1.199999999999990186, 70.00000000000000000 ) ) ;
#200 = CIRCLE ( 'NONE', #211, 1.968999999999998973 ) ;
#201 = APPLICATION_PROTOCOL_DEFINITION ( 'international standard', 'config_control_design', 1994, #33 ) ;
#202 = CARTESIAN_POINT ( 'NONE',  ( 8.728703347107833388E-16, 1.968999999999998973, 0.2500000000000000000 ) ) ;
#203 = VERTEX_POINT ( 'NONE', #199 ) ;
#204 = AXIS2_PLACEMENT_3D ( 'NONE', #109, #31, #142 ) ;
#205 = PERSON_AND_ORGANIZATION ( #21, #223 ) ;
#206 = AXIS2_PLACEMENT_3D ( 'NONE', #112, #91, #48 ) ;
#207 = CALENDAR_DATE ( 2021, 26, 11 ) ;
#208 = EDGE_CURVE ( 'NONE', #140, #140, #200, .T. ) ;
#209 = DIRECTION ( 'NONE',  ( 3.491481338843133355E-15, -1.049697256412017316E-16, 1.000000000000000000 ) ) ;
#210 = ORIENTED_EDGE ( 'NONE', *, *, #85, .T. ) ;
#211 = AXIS2_PLACEMENT_3D ( 'NONE', #125, #160, #73 ) ;
#212 = EDGE_CURVE ( 'NONE', #111, #111, #170, .T. ) ;
#213 = ORIENTED_EDGE ( 'NONE', *, *, #59, .T. ) ;
#214 = DIRECTION ( 'NONE',  ( 2.059170368042057294E-30, -1.000000000000000000, 5.897698335470244592E-16 ) ) ;
#215 = PLANE ( 'NONE',  #49 ) ;
#216 = AXIS2_PLACEMENT_3D ( 'NONE', #229, #82, #121 ) ;
#217 =( NAMED_UNIT ( * ) PLANE_ANGLE_UNIT ( ) SI_UNIT ( $, .RADIAN. ) );
#218 = CC_DESIGN_SECURITY_CLASSIFICATION ( #180, ( #151 ) ) ;
#219 = ADVANCED_FACE ( 'NONE', ( #88 ), #11, .T. ) ;
#220 = CARTESIAN_POINT ( 'NONE',  ( -1.892735826383161356E-31, 1.824662432702592874, -5.421010862427522170E-17 ) ) ;
#221 = ORIENTED_EDGE ( 'NONE', *, *, #85, .F. ) ;
#222 =( NAMED_UNIT ( * ) SI_UNIT ( $, .STERADIAN. ) SOLID_ANGLE_UNIT ( ) );
#223 = ORGANIZATION ( 'UNSPECIFIED', 'UNSPECIFIED', '' ) ;
#224 = COORDINATED_UNIVERSAL_TIME_OFFSET ( 1, 0, .AHEAD. ) ;
#225 = DATE_AND_TIME ( #75, #54 ) ;
#226 = PERSON_AND_ORGANIZATION_ROLE ( 'creator' ) ;
#227 = AXIS2_PLACEMENT_3D ( 'NONE', #105, #117, #43 ) ;
#228 = EDGE_LOOP ( 'NONE', ( #25 ) ) ;
#229 = CARTESIAN_POINT ( 'NONE',  ( 3.585821138774992879E-14, -1.078060068510489993E-15, 10.27019992598075326 ) ) ;
#230 = DIRECTION ( 'NONE',  ( 3.491481338843133355E-15, 5.897698335470244592E-16, 1.000000000000000000 ) ) ;
#231 = CIRCLE ( 'NONE', #144, 1.968999999999992978 ) ;
#232 = APPROVAL ( #2, 'UNSPECIFIED' ) ;
#233 = DIRECTION ( 'NONE',  ( -3.491481338843133355E-15, -5.897698335470244592E-16, -1.000000000000000000 ) ) ;
#234 = DIRECTION ( 'NONE',  ( 3.664998382197393967E-31, 1.000000000000000000, 1.049697256412017316E-16 ) ) ;
#235 = CC_DESIGN_PERSON_AND_ORGANIZATION_ASSIGNMENT ( #205, #55, ( #151 ) ) ;
#236 = CARTESIAN_POINT ( 'NONE',  ( 3.869445280877825814E-14, 1.499999999999991562, 11.08253175473057794 ) ) ;
#237 = CONICAL_SURFACE ( 'NONE', #127, 1.824662432702592874, 0.5235987755982977054 ) ;
#238 = DIRECTION ( 'NONE',  ( 0.0000000000000000000, 1.000000000000000000, 0.0000000000000000000 ) ) ;
#239 = ADVANCED_FACE ( 'NONE', ( #240, #34 ), #136, .T. ) ;
#240 = FACE_BOUND ( 'NONE', #134, .T. ) ;
#241 = AXIS2_PLACEMENT_3D ( 'NONE', #161, #37, #189 ) ;
#242 = PERSON_AND_ORGANIZATION ( #21, #223 ) ;
#243 = PERSON_AND_ORGANIZATION ( #21, #223 ) ;
ENDSEC;
END-ISO-10303-21;
