ISO-10303-21;
HEADER;
FILE_DESCRIPTION (( 'STEP AP203' ),
    '1' );
FILE_NAME ('321296.step',
    '2021-11-26T13:02:16',
    ( '' ),
    ( '' ),
    'SwSTEP 2.0',
    'SolidWorks 2019',
    '' );
FILE_SCHEMA (( 'CONFIG_CONTROL_DESIGN' ));
ENDSEC;

DATA;
#1 = CC_DESIGN_PERSON_AND_ORGANIZATION_ASSIGNMENT ( #69, #108, ( #46 ) ) ;
#2 = FACE_OUTER_BOUND ( 'NONE', #198, .T. ) ;
#3 = CARTESIAN_POINT ( 'NONE',  ( 3.588844850311270383E-14, 1.963999999999998636, 10.27886018001859725 ) ) ;
#4 = AXIS2_PLACEMENT_3D ( 'NONE', #25, #114, #210 ) ;
#5 = EDGE_CURVE ( 'NONE', #38, #38, #238, .T. ) ;
#6 = CARTESIAN_POINT ( 'NONE',  ( 2.444036937190193601E-13, 1.199999999999990186, 70.00000000000000000 ) ) ;
#7 = APPROVAL_STATUS ( 'not_yet_approved' ) ;
#8 = AXIS2_PLACEMENT_3D ( 'NONE', #28, #237, #70 ) ;
#9 = APPROVAL_DATE_TIME ( #83, #104 ) ;
#10 = PERSON_AND_ORGANIZATION_ROLE ( 'classification_officer' ) ;
#11 = EDGE_LOOP ( 'NONE', ( #43 ) ) ;
#12 = CARTESIAN_POINT ( 'NONE',  ( 3.588844850311270383E-14, -1.078969133000825717E-15, 10.27886018001859725 ) ) ;
#13 = FACE_OUTER_BOUND ( 'NONE', #221, .T. ) ;
#14 = ORIENTED_EDGE ( 'NONE', *, *, #220, .T. ) ;
#15 = FACE_OUTER_BOUND ( 'NONE', #202, .T. ) ;
#16 = AXIS2_PLACEMENT_3D ( 'NONE', #12, #110, #235 ) ;
#17 = DIRECTION ( 'NONE',  ( 0.0000000000000000000, 1.000000000000000000, 0.0000000000000000000 ) ) ;
#18 = DIRECTION ( 'NONE',  ( 3.491481338843133355E-15, -1.049697256412017316E-16, 1.000000000000000000 ) ) ;
#19 = DIRECTION ( 'NONE',  ( 0.0000000000000000000, 1.000000000000000000, 0.0000000000000000000 ) ) ;
#20 = ADVANCED_FACE ( 'NONE', ( #204, #30 ), #93, .T. ) ;
#21 = CARTESIAN_POINT ( 'NONE',  ( 2.433562493173664138E-13, 1.499999999999990230, 69.70000000000001705 ) ) ;
#22 = DATE_AND_TIME ( #66, #33 ) ;
#23 = CALENDAR_DATE ( 2021, 26, 11 ) ;
#24 = DATE_AND_TIME ( #197, #215 ) ;
#25 = CARTESIAN_POINT ( 'NONE',  ( 8.728703347107873817E-16, 1.472666434877011977E-16, 0.2500000000000011657 ) ) ;
#26 = CLOSED_SHELL ( 'NONE', ( #112, #20, #195, #153, #96 ) ) ;
#27 = APPROVAL_DATE_TIME ( #24, #71 ) ;
#28 = CARTESIAN_POINT ( 'NONE',  ( -1.965900256225295959E-30, 1.819662432702592536, -5.630562118016867327E-16 ) ) ;
#29 = EDGE_CURVE ( 'NONE', #170, #170, #75, .T. ) ;
#30 = FACE_OUTER_BOUND ( 'NONE', #142, .T. ) ;
#31 = AXIS2_PLACEMENT_3D ( 'NONE', #116, #155, #35 ) ;
#32 = DIRECTION ( 'NONE',  ( 2.056714950285484335E-30, -1.000000000000000000, 5.890665739508021283E-16 ) ) ;
#33 = LOCAL_TIME ( 14, 2, 16.00000000000000000, #122 ) ;
#34 = EDGE_CURVE ( 'NONE', #80, #80, #188, .T. ) ;
#35 = DIRECTION ( 'NONE',  ( -2.056714950285484335E-30, 1.000000000000000000, -5.890665739508021283E-16 ) ) ;
#36 = CLOSED_SHELL ( 'NONE', ( #47, #150, #64, #50 ) ) ;
#37 = DIRECTION ( 'NONE',  ( 3.664998382197393967E-31, 1.000000000000000000, 1.049697256412017316E-16 ) ) ;
#38 = VERTEX_POINT ( 'NONE', #3 ) ;
#39 = PERSON_AND_ORGANIZATION ( #203, #40 ) ;
#40 = ORGANIZATION ( 'UNSPECIFIED', 'UNSPECIFIED', '' ) ;
#41 = PERSON_AND_ORGANIZATION ( #203, #40 ) ;
#42 = DATE_AND_TIME ( #214, #135 ) ;
#43 = ORIENTED_EDGE ( 'NONE', *, *, #174, .T. ) ;
#44 = COORDINATED_UNIVERSAL_TIME_OFFSET ( 1, 0, .AHEAD. ) ;
#45 = ORIENTED_EDGE ( 'NONE', *, *, #174, .F. ) ;
#46 = PRODUCT_DEFINITION_FORMATION_WITH_SPECIFIED_SOURCE ( 'ANY', '', #94, .NOT_KNOWN. ) ;
#47 = ADVANCED_FACE ( 'NONE', ( #13 ), #131, .T. ) ;
#48 = EDGE_LOOP ( 'NONE', ( #161 ) ) ;
#49 = ORIENTED_EDGE ( 'NONE', *, *, #34, .F. ) ;
#50 = ADVANCED_FACE ( 'NONE', ( #74 ), #87, .T. ) ;
#51 = ORIENTED_EDGE ( 'NONE', *, *, #220, .F. ) ;
#52 = AXIS2_PLACEMENT_3D ( 'NONE', #73, #146, #32 ) ;
#53 =( LENGTH_UNIT ( ) NAMED_UNIT ( * ) SI_UNIT ( .MILLI., .METRE. ) );
#54 = PRODUCT_DEFINITION_SHAPE ( 'NONE', 'NONE',  #223 ) ;
#55 = DESIGN_CONTEXT ( 'detailed design', #102, 'design' ) ;
#56 = ADVANCED_BREP_SHAPE_REPRESENTATION ( '321296', ( #224, #226, #154 ), #199 ) ;
#57 = FACE_OUTER_BOUND ( 'NONE', #218, .T. ) ;
#58 = FACE_OUTER_BOUND ( 'NONE', #91, .T. ) ;
#59 = DIRECTION ( 'NONE',  ( -3.491481338843133355E-15, -5.890665739508021283E-16, -1.000000000000000000 ) ) ;
#60 = CC_DESIGN_APPROVAL ( #90, ( #46 ) ) ;
#61 = DIRECTION ( 'NONE',  ( -3.491481338843133355E-15, 1.049697256412017316E-16, -1.000000000000000000 ) ) ;
#62 = APPROVAL_ROLE ( '' ) ;
#63 = COORDINATED_UNIVERSAL_TIME_OFFSET ( 1, 0, .AHEAD. ) ;
#64 = ADVANCED_FACE ( 'NONE', ( #240, #206 ), #158, .T. ) ;
#65 = CC_DESIGN_APPROVAL ( #104, ( #223 ) ) ;
#66 = CALENDAR_DATE ( 2021, 26, 11 ) ;
#67 = EDGE_LOOP ( 'NONE', ( #128 ) ) ;
#68 = EDGE_CURVE ( 'NONE', #213, #213, #81, .T. ) ;
#69 = PERSON_AND_ORGANIZATION ( #203, #40 ) ;
#70 = DIRECTION ( 'NONE',  ( -2.056714950285484685E-30, 1.000000000000000000, -5.890665739508021283E-16 ) ) ;
#71 = APPROVAL ( #231, 'UNSPECIFIED' ) ;
#72 = EDGE_LOOP ( 'NONE', ( #49 ) ) ;
#73 = CARTESIAN_POINT ( 'NONE',  ( 3.553253347173959690E-30, 5.994884613338683347E-31, 1.017692206354823022E-15 ) ) ;
#74 = FACE_OUTER_BOUND ( 'NONE', #113, .T. ) ;
#75 = CIRCLE ( 'NONE', #111, 1.499999999999997558 ) ;
#76 = CC_DESIGN_PERSON_AND_ORGANIZATION_ASSIGNMENT ( #82, #125, ( #46 ) ) ;
#77 = AXIS2_PLACEMENT_3D ( 'NONE', #118, #230, #19 ) ;
#78 = CARTESIAN_POINT ( 'NONE',  ( 3.588844850311270383E-14, 1.963999999999998636, 10.27886018001859725 ) ) ;
#79 = CYLINDRICAL_SURFACE ( 'NONE', #180, 1.499999999999995337 ) ;
#80 = VERTEX_POINT ( 'NONE', #136 ) ;
#81 = CIRCLE ( 'NONE', #4, 1.963999999999998636 ) ;
#82 = PERSON_AND_ORGANIZATION ( #203, #40 ) ;
#83 = DATE_AND_TIME ( #23, #242 ) ;
#84 = CONICAL_SURFACE ( 'NONE', #208, 1.963999999999999524, 0.5235987755982940417 ) ;
#85 = DIRECTION ( 'NONE',  ( 1.000000000000000000, 0.0000000000000000000, 0.0000000000000000000 ) ) ;
#86 = EDGE_LOOP ( 'NONE', ( #145 ) ) ;
#87 = PLANE ( 'NONE',  #8 ) ;
#88 = DIRECTION ( 'NONE',  ( -3.491481338843133355E-15, -5.890665739508021283E-16, -1.000000000000000000 ) ) ;
#89 = CARTESIAN_POINT ( 'NONE',  ( 3.588844850311270383E-14, 6.054932950362880179E-15, 10.27886018001859725 ) ) ;
#90 = APPROVAL ( #216, 'UNSPECIFIED' ) ;
#91 = EDGE_LOOP ( 'NONE', ( #51 ) ) ;
#92 = VERTEX_POINT ( 'NONE', #6 ) ;
#93 = CONICAL_SURFACE ( 'NONE', #229, 1.499999999999997558, 0.7853981633974573828 ) ;
#94 = PRODUCT ( '321296', '321296', '', ( #143 ) ) ;
#95 = CIRCLE ( 'NONE', #164, 1.499999999999992673 ) ;
#96 = ADVANCED_FACE ( 'NONE', ( #57 ), #151, .T. ) ;
#97 = VERTEX_POINT ( 'NONE', #148 ) ;
#98 = CARTESIAN_POINT ( 'NONE',  ( 3.588844850311270383E-14, -1.078969133000825717E-15, 10.27886018001859725 ) ) ;
#99 = DIRECTION ( 'NONE',  ( -3.664998382197393967E-31, -1.000000000000000000, -1.049697256412017316E-16 ) ) ;
#100 = VERTEX_POINT ( 'NONE', #177 ) ;
#101 = APPROVAL_ROLE ( '' ) ;
#102 = APPLICATION_CONTEXT ( 'configuration controlled 3d designs of mechanical parts and assemblies' ) ;
#103 = PERSON_AND_ORGANIZATION_ROLE ( 'creator' ) ;
#104 = APPROVAL ( #7, 'UNSPECIFIED' ) ;
#105 = APPLICATION_PROTOCOL_DEFINITION ( 'international standard', 'config_control_design', 1994, #124 ) ;
#106 = AXIS2_PLACEMENT_3D ( 'NONE', #119, #59, #228 ) ;
#107 = DIRECTION ( 'NONE',  ( 3.491481338843133355E-15, 5.890665739508021283E-16, 1.000000000000000000 ) ) ;
#108 = PERSON_AND_ORGANIZATION_ROLE ( 'creator' ) ;
#109 = CARTESIAN_POINT ( 'NONE',  ( 2.433562493173664138E-13, -7.316389877191761450E-15, 69.70000000000001705 ) ) ;
#110 = DIRECTION ( 'NONE',  ( -3.491481338843133355E-15, 1.049697256412017316E-16, -1.000000000000000000 ) ) ;
#111 = AXIS2_PLACEMENT_3D ( 'NONE', #109, #185, #184 ) ;
#112 = ADVANCED_FACE ( 'NONE', ( #58 ), #227, .T. ) ;
#113 = EDGE_LOOP ( 'NONE', ( #183 ) ) ;
#114 = DIRECTION ( 'NONE',  ( -3.491481338843133355E-15, -5.890665739508021283E-16, -1.000000000000000000 ) ) ;
#115 = SECURITY_CLASSIFICATION ( '', '', #179 ) ;
#116 = CARTESIAN_POINT ( 'NONE',  ( 0.0000000000000000000, 0.0000000000000000000, 0.0000000000000000000 ) ) ;
#117 = CYLINDRICAL_SURFACE ( 'NONE', #31, 1.963999999999995749 ) ;
#118 = CARTESIAN_POINT ( 'NONE',  ( 2.444036937190193601E-13, -7.347880794884121511E-15, 70.00000000000000000 ) ) ;
#119 = CARTESIAN_POINT ( 'NONE',  ( 3.588844850311271014E-14, 6.054932950362881757E-15, 10.27886018001859902 ) ) ;
#120 = CC_DESIGN_DATE_AND_TIME_ASSIGNMENT ( #178, #181, ( #223 ) ) ;
#121 = DIRECTION ( 'NONE',  ( 0.0000000000000000000, 0.0000000000000000000, 1.000000000000000000 ) ) ;
#122 = COORDINATED_UNIVERSAL_TIME_OFFSET ( 1, 0, .AHEAD. ) ;
#123 = COORDINATED_UNIVERSAL_TIME_OFFSET ( 1, 0, .AHEAD. ) ;
#124 = APPLICATION_CONTEXT ( 'configuration controlled 3d designs of mechanical parts and assemblies' ) ;
#125 = PERSON_AND_ORGANIZATION_ROLE ( 'design_supplier' ) ;
#126 = AXIS2_PLACEMENT_3D ( 'NONE', #89, #107, #167 ) ;
#127 = ORIENTED_EDGE ( 'NONE', *, *, #243, .T. ) ;
#128 = ORIENTED_EDGE ( 'NONE', *, *, #68, .F. ) ;
#129 = EDGE_LOOP ( 'NONE', ( #14 ) ) ;
#130 = APPROVAL_PERSON_ORGANIZATION ( #139, #104, #194 ) ;
#131 = PLANE ( 'NONE',  #126 ) ;
#132 = DIRECTION ( 'NONE',  ( 3.664998382197393967E-31, 1.000000000000000000, 1.049697256412017316E-16 ) ) ;
#133 = CC_DESIGN_PERSON_AND_ORGANIZATION_ASSIGNMENT ( #234, #103, ( #223 ) ) ;
#134 = FACE_OUTER_BOUND ( 'NONE', #48, .T. ) ;
#135 = LOCAL_TIME ( 14, 2, 16.00000000000000000, #200 ) ;
#136 = CARTESIAN_POINT ( 'NONE',  ( -1.892735826383168144E-31, 1.819662432702592536, -5.421010862427522170E-17 ) ) ;
#137 = PRODUCT_RELATED_PRODUCT_CATEGORY ( 'detail', '', ( #94 ) ) ;
#138 = AXIS2_PLACEMENT_3D ( 'NONE', #212, #18, #99 ) ;
#139 = PERSON_AND_ORGANIZATION ( #203, #40 ) ;
#140 = CARTESIAN_POINT ( 'NONE',  ( 0.0000000000000000000, 0.0000000000000000000, 0.0000000000000000000 ) ) ;
#141 =( NAMED_UNIT ( * ) SI_UNIT ( $, .STERADIAN. ) SOLID_ANGLE_UNIT ( ) );
#142 = EDGE_LOOP ( 'NONE', ( #217 ) ) ;
#143 = MECHANICAL_CONTEXT ( 'NONE', #124, 'mechanical' ) ;
#144 = LOCAL_TIME ( 14, 2, 16.00000000000000000, #44 ) ;
#145 = ORIENTED_EDGE ( 'NONE', *, *, #68, .T. ) ;
#146 = DIRECTION ( 'NONE',  ( 3.491481338843133355E-15, 5.890665739508021283E-16, 1.000000000000000000 ) ) ;
#147 = CC_DESIGN_PERSON_AND_ORGANIZATION_ASSIGNMENT ( #41, #162, ( #94 ) ) ;
#148 = CARTESIAN_POINT ( 'NONE',  ( 3.869445280877825814E-14, 1.499999999999991562, 11.08253175473057794 ) ) ;
#149 = CIRCLE ( 'NONE', #77, 1.199999999999997513 ) ;
#150 = ADVANCED_FACE ( 'NONE', ( #175, #192 ), #117, .T. ) ;
#151 = PLANE ( 'NONE',  #190 ) ;
#152 = CARTESIAN_POINT ( 'NONE',  ( 0.0000000000000000000, 0.0000000000000000000, 0.0000000000000000000 ) ) ;
#153 = ADVANCED_FACE ( 'NONE', ( #191, #134 ), #84, .T. ) ;
#154 = AXIS2_PLACEMENT_3D ( 'NONE', #140, #121, #85 ) ;
#155 = DIRECTION ( 'NONE',  ( -3.491481338843133355E-15, -5.890665739508021283E-16, -1.000000000000000000 ) ) ;
#156 = PERSON_AND_ORGANIZATION ( #203, #40 ) ;
#157 = APPROVAL_DATE_TIME ( #22, #90 ) ;
#158 = CONICAL_SURFACE ( 'NONE', #52, 1.819662432702592536, 0.5235987755982977054 ) ;
#159 = APPLICATION_PROTOCOL_DEFINITION ( 'international standard', 'config_control_design', 1994, #102 ) ;
#160 = SHAPE_DEFINITION_REPRESENTATION ( #54, #56 ) ;
#161 = ORIENTED_EDGE ( 'NONE', *, *, #5, .F. ) ;
#162 = PERSON_AND_ORGANIZATION_ROLE ( 'design_owner' ) ;
#163 = CARTESIAN_POINT ( 'NONE',  ( 2.433562493173664138E-13, -7.316389877191761450E-15, 69.70000000000001705 ) ) ;
#164 = AXIS2_PLACEMENT_3D ( 'NONE', #189, #172, #17 ) ;
#165 = DIRECTION ( 'NONE',  ( -2.056714950285484335E-30, 1.000000000000000000, -5.890665739508021283E-16 ) ) ;
#166 = CC_DESIGN_DATE_AND_TIME_ASSIGNMENT ( #42, #232, ( #115 ) ) ;
#167 = DIRECTION ( 'NONE',  ( 2.056714950285484685E-30, -1.000000000000000000, 5.890665739508021283E-16 ) ) ;
#168 = DIRECTION ( 'NONE',  ( -3.491481338843133355E-15, 1.049697256412017316E-16, -1.000000000000000000 ) ) ;
#169 = APPROVAL_PERSON_ORGANIZATION ( #39, #71, #62 ) ;
#170 = VERTEX_POINT ( 'NONE', #21 ) ;
#171 = APPROVAL_PERSON_ORGANIZATION ( #156, #90, #101 ) ;
#172 = DIRECTION ( 'NONE',  ( -3.491481338843133355E-15, 1.049697256412017316E-16, -1.000000000000000000 ) ) ;
#173 = DIRECTION ( 'NONE',  ( 0.0000000000000000000, 1.000000000000000000, 0.0000000000000000000 ) ) ;
#174 = EDGE_CURVE ( 'NONE', #100, #100, #205, .T. ) ;
#175 = FACE_OUTER_BOUND ( 'NONE', #11, .T. ) ;
#176 = CC_DESIGN_APPROVAL ( #71, ( #115 ) ) ;
#177 = CARTESIAN_POINT ( 'NONE',  ( 3.588844850311270383E-14, 1.963999999999998636, 10.27886018001859725 ) ) ;
#178 = DATE_AND_TIME ( #236, #144 ) ;
#179 = SECURITY_CLASSIFICATION_LEVEL ( 'unclassified' ) ;
#180 = AXIS2_PLACEMENT_3D ( 'NONE', #152, #209, #37 ) ;
#181 = DATE_TIME_ROLE ( 'creation_date' ) ;
#182 = EDGE_LOOP ( 'NONE', ( #127 ) ) ;
#183 = ORIENTED_EDGE ( 'NONE', *, *, #34, .T. ) ;
#184 = DIRECTION ( 'NONE',  ( 0.0000000000000000000, 1.000000000000000000, 0.0000000000000000000 ) ) ;
#185 = DIRECTION ( 'NONE',  ( -3.491481338843133355E-15, 1.049697256412017316E-16, -1.000000000000000000 ) ) ;
#186 = ORIENTED_EDGE ( 'NONE', *, *, #243, .F. ) ;
#187 = DIRECTION ( 'NONE',  ( -3.491481338843133355E-15, 1.049697256412017316E-16, -1.000000000000000000 ) ) ;
#188 = CIRCLE ( 'NONE', #211, 1.819662432702592536 ) ;
#189 = CARTESIAN_POINT ( 'NONE',  ( 3.869445280877825814E-14, -1.163330317703974832E-15, 11.08253175473057794 ) ) ;
#190 = AXIS2_PLACEMENT_3D ( 'NONE', #78, #187, #132 ) ;
#191 = FACE_BOUND ( 'NONE', #182, .T. ) ;
#192 = FACE_OUTER_BOUND ( 'NONE', #67, .T. ) ;
#193 = CARTESIAN_POINT ( 'NONE',  ( 8.728703347107833388E-16, 1.963999999999998636, 0.2500000000000000000 ) ) ;
#194 = APPROVAL_ROLE ( '' ) ;
#195 = ADVANCED_FACE ( 'NONE', ( #2, #15 ), #79, .T. ) ;
#196 = PERSON_AND_ORGANIZATION ( #203, #40 ) ;
#197 = CALENDAR_DATE ( 2021, 26, 11 ) ;
#198 = EDGE_LOOP ( 'NONE', ( #219 ) ) ;
#199 =( GEOMETRIC_REPRESENTATION_CONTEXT ( 3 ) GLOBAL_UNCERTAINTY_ASSIGNED_CONTEXT ( ( #225 ) ) GLOBAL_UNIT_ASSIGNED_CONTEXT ( ( #53, #207, #141 ) ) REPRESENTATION_CONTEXT ( 'NONE', 'WORKASPACE' ) );
#200 = COORDINATED_UNIVERSAL_TIME_OFFSET ( 1, 0, .AHEAD. ) ;
#201 = CARTESIAN_POINT ( 'NONE',  ( 3.553253347173959690E-30, 5.994884613338683347E-31, 1.017692206354823022E-15 ) ) ;
#202 = EDGE_LOOP ( 'NONE', ( #186 ) ) ;
#203 = PERSON ( 'UNSPECIFIED', 'UNSPECIFIED', 'UNSPECIFIED', ('UNSPECIFIED'), ('UNSPECIFIED'), ('UNSPECIFIED') ) ;
#204 = FACE_BOUND ( 'NONE', #129, .T. ) ;
#205 = CIRCLE ( 'NONE', #106, 1.963999999999992641 ) ;
#206 = FACE_BOUND ( 'NONE', #72, .T. ) ;
#207 =( NAMED_UNIT ( * ) PLANE_ANGLE_UNIT ( ) SI_UNIT ( $, .RADIAN. ) );
#208 = AXIS2_PLACEMENT_3D ( 'NONE', #98, #61, #173 ) ;
#209 = DIRECTION ( 'NONE',  ( -3.491481338843133355E-15, 1.049697256412017316E-16, -1.000000000000000000 ) ) ;
#210 = DIRECTION ( 'NONE',  ( -2.059293728723624199E-30, 1.000000000000000000, -5.796396543328820762E-16 ) ) ;
#211 = AXIS2_PLACEMENT_3D ( 'NONE', #201, #88, #165 ) ;
#212 = CARTESIAN_POINT ( 'NONE',  ( 2.444036937190193601E-13, -7.347880794884121511E-15, 70.00000000000000000 ) ) ;
#213 = VERTEX_POINT ( 'NONE', #193 ) ;
#214 = CALENDAR_DATE ( 2021, 26, 11 ) ;
#215 = LOCAL_TIME ( 14, 2, 16.00000000000000000, #123 ) ;
#216 = APPROVAL_STATUS ( 'not_yet_approved' ) ;
#217 = ORIENTED_EDGE ( 'NONE', *, *, #29, .F. ) ;
#218 = EDGE_LOOP ( 'NONE', ( #239 ) ) ;
#219 = ORIENTED_EDGE ( 'NONE', *, *, #29, .T. ) ;
#220 = EDGE_CURVE ( 'NONE', #92, #92, #149, .T. ) ;
#221 = EDGE_LOOP ( 'NONE', ( #45 ) ) ;
#222 = CC_DESIGN_PERSON_AND_ORGANIZATION_ASSIGNMENT ( #196, #10, ( #115 ) ) ;
#223 = PRODUCT_DEFINITION ( 'UNKNOWN', '', #46, #55 ) ;
#224 = MANIFOLD_SOLID_BREP ( 'Corps-Déplacer/Copier1[1]', #26 ) ;
#225 = UNCERTAINTY_MEASURE_WITH_UNIT (LENGTH_MEASURE( 1.000000000000000082E-05 ), #53, 'distance_accuracy_value', 'NONE');
#226 = MANIFOLD_SOLID_BREP ( 'Corps-Déplacer/Copier1[2]', #36 ) ;
#227 = PLANE ( 'NONE',  #138 ) ;
#228 = DIRECTION ( 'NONE',  ( -3.137971396150294203E-30, 1.000000000000000000, -8.832604256501087537E-16 ) ) ;
#229 = AXIS2_PLACEMENT_3D ( 'NONE', #163, #168, #241 ) ;
#230 = DIRECTION ( 'NONE',  ( -3.491481338843133355E-15, 1.049697256412017316E-16, -1.000000000000000000 ) ) ;
#231 = APPROVAL_STATUS ( 'not_yet_approved' ) ;
#232 = DATE_TIME_ROLE ( 'classification_date' ) ;
#233 = CC_DESIGN_SECURITY_CLASSIFICATION ( #115, ( #46 ) ) ;
#234 = PERSON_AND_ORGANIZATION ( #203, #40 ) ;
#235 = DIRECTION ( 'NONE',  ( 0.0000000000000000000, 1.000000000000000000, 0.0000000000000000000 ) ) ;
#236 = CALENDAR_DATE ( 2021, 26, 11 ) ;
#237 = DIRECTION ( 'NONE',  ( -3.491481338843133355E-15, -5.890665739508021283E-16, -1.000000000000000000 ) ) ;
#238 = CIRCLE ( 'NONE', #16, 1.963999999999999524 ) ;
#239 = ORIENTED_EDGE ( 'NONE', *, *, #5, .T. ) ;
#240 = FACE_OUTER_BOUND ( 'NONE', #86, .T. ) ;
#241 = DIRECTION ( 'NONE',  ( 0.0000000000000000000, 1.000000000000000000, 0.0000000000000000000 ) ) ;
#242 = LOCAL_TIME ( 14, 2, 16.00000000000000000, #63 ) ;
#243 = EDGE_CURVE ( 'NONE', #97, #97, #95, .T. ) ;
ENDSEC;
END-ISO-10303-21;
