ISO-10303-21;
HEADER;
FILE_DESCRIPTION (( 'STEP AP203' ),
    '1' );
FILE_NAME ('321295.step',
    '2021-11-26T13:02:15',
    ( '' ),
    ( '' ),
    'SwSTEP 2.0',
    'SolidWorks 2019',
    '' );
FILE_SCHEMA (( 'CONFIG_CONTROL_DESIGN' ));
ENDSEC;

DATA;
#1 = VERTEX_POINT ( 'NONE', #77 ) ;
#2 = CC_DESIGN_SECURITY_CLASSIFICATION ( #215, ( #22 ) ) ;
#3 = DIRECTION ( 'NONE',  ( 0.0000000000000000000, 1.000000000000000000, 0.0000000000000000000 ) ) ;
#4 = CC_DESIGN_PERSON_AND_ORGANIZATION_ASSIGNMENT ( #200, #156, ( #22 ) ) ;
#5 = CARTESIAN_POINT ( 'NONE',  ( 3.591868561847547256E-14, 6.052811799885430091E-15, 10.28752043405643946 ) ) ;
#6 = DIRECTION ( 'NONE',  ( -2.054263666574949533E-30, 1.000000000000000000, -5.883644983924240817E-16 ) ) ;
#7 = LOCAL_TIME ( 14, 2, 15.00000000000000000, #108 ) ;
#8 = VERTEX_POINT ( 'NONE', #82 ) ;
#9 = PERSON_AND_ORGANIZATION ( #49, #146 ) ;
#10 = CARTESIAN_POINT ( 'NONE',  ( 3.869445280877825814E-14, 1.499999999999991562, 11.08253175473057794 ) ) ;
#11 = APPLICATION_PROTOCOL_DEFINITION ( 'international standard', 'config_control_design', 1994, #106 ) ;
#12 = COORDINATED_UNIVERSAL_TIME_OFFSET ( 1, 0, .AHEAD. ) ;
#13 = ADVANCED_FACE ( 'NONE', ( #205, #53 ), #29, .T. ) ;
#14 = EDGE_LOOP ( 'NONE', ( #131 ) ) ;
#15 = EDGE_LOOP ( 'NONE', ( #148 ) ) ;
#16 = ORIENTED_EDGE ( 'NONE', *, *, #192, .F. ) ;
#17 = LOCAL_TIME ( 14, 2, 15.00000000000000000, #236 ) ;
#18 = ORIENTED_EDGE ( 'NONE', *, *, #171, .T. ) ;
#19 = VERTEX_POINT ( 'NONE', #94 ) ;
#20 = CC_DESIGN_PERSON_AND_ORGANIZATION_ASSIGNMENT ( #9, #183, ( #22 ) ) ;
#21 = FACE_OUTER_BOUND ( 'NONE', #14, .T. ) ;
#22 = PRODUCT_DEFINITION_FORMATION_WITH_SPECIFIED_SOURCE ( 'ANY', '', #204, .NOT_KNOWN. ) ;
#23 = FACE_OUTER_BOUND ( 'NONE', #70, .T. ) ;
#24 = CARTESIAN_POINT ( 'NONE',  ( 8.728703347107873817E-16, 1.470911245981066860E-16, 0.2500000000000011657 ) ) ;
#25 = FACE_OUTER_BOUND ( 'NONE', #15, .T. ) ;
#26 =( NAMED_UNIT ( * ) PLANE_ANGLE_UNIT ( ) SI_UNIT ( $, .RADIAN. ) );
#27 = DATE_AND_TIME ( #221, #220 ) ;
#28 =( LENGTH_UNIT ( ) NAMED_UNIT ( * ) SI_UNIT ( .MILLI., .METRE. ) );
#29 = CONICAL_SURFACE ( 'NONE', #63, 1.499999999999997558, 0.7853981633974573828 ) ;
#30 = EDGE_LOOP ( 'NONE', ( #71 ) ) ;
#31 = ORIENTED_EDGE ( 'NONE', *, *, #139, .F. ) ;
#32 = AXIS2_PLACEMENT_3D ( 'NONE', #150, #212, #6 ) ;
#33 = DIRECTION ( 'NONE',  ( -3.491481338843133355E-15, -5.883644983924240817E-16, -1.000000000000000000 ) ) ;
#34 = CARTESIAN_POINT ( 'NONE',  ( 3.591868561847547256E-14, 1.958999999999998964, 10.28752043405644123 ) ) ;
#35 = FACE_OUTER_BOUND ( 'NONE', #50, .T. ) ;
#36 = FACE_OUTER_BOUND ( 'NONE', #90, .T. ) ;
#37 = CARTESIAN_POINT ( 'NONE',  ( 2.444036937190193601E-13, -7.347880794884121511E-15, 70.00000000000000000 ) ) ;
#38 = DATE_TIME_ROLE ( 'classification_date' ) ;
#39 = APPLICATION_PROTOCOL_DEFINITION ( 'international standard', 'config_control_design', 1994, #122 ) ;
#40 = ADVANCED_FACE ( 'NONE', ( #165 ), #114, .T. ) ;
#41 = PERSON_AND_ORGANIZATION ( #49, #146 ) ;
#42 = ADVANCED_FACE ( 'NONE', ( #227, #189 ), #179, .T. ) ;
#43 = PERSON_AND_ORGANIZATION_ROLE ( 'creator' ) ;
#44 = AXIS2_PLACEMENT_3D ( 'NONE', #56, #153, #116 ) ;
#45 = ORIENTED_EDGE ( 'NONE', *, *, #110, .T. ) ;
#46 = MANIFOLD_SOLID_BREP ( 'Corps-Déplacer/Copier1[2]', #101 ) ;
#47 = MANIFOLD_SOLID_BREP ( 'Corps-Déplacer/Copier1[1]', #223 ) ;
#48 = LOCAL_TIME ( 14, 2, 15.00000000000000000, #12 ) ;
#49 = PERSON ( 'UNSPECIFIED', 'UNSPECIFIED', 'UNSPECIFIED', ('UNSPECIFIED'), ('UNSPECIFIED'), ('UNSPECIFIED') ) ;
#50 = EDGE_LOOP ( 'NONE', ( #45 ) ) ;
#51 = DIRECTION ( 'NONE',  ( -3.491481338843133355E-15, 1.049697256412017316E-16, -1.000000000000000000 ) ) ;
#52 = CC_DESIGN_DATE_AND_TIME_ASSIGNMENT ( #107, #104, ( #134 ) ) ;
#53 = FACE_OUTER_BOUND ( 'NONE', #243, .T. ) ;
#54 = VERTEX_POINT ( 'NONE', #133 ) ;
#55 = APPROVAL_DATE_TIME ( #95, #144 ) ;
#56 = CARTESIAN_POINT ( 'NONE',  ( 3.591868561847547256E-14, -1.079878197491161244E-15, 10.28752043405644123 ) ) ;
#57 = CARTESIAN_POINT ( 'NONE',  ( 3.538521519961129332E-30, 5.962914411086492338E-31, 1.013472843344361766E-15 ) ) ;
#58 = CONICAL_SURFACE ( 'NONE', #81, 1.814662432702592865, 0.5235987755982977054 ) ;
#59 = FACE_OUTER_BOUND ( 'NONE', #91, .T. ) ;
#60 = DIRECTION ( 'NONE',  ( -2.064549710675445417E-30, 1.000000000000000000, -5.811190817303625816E-16 ) ) ;
#61 = UNCERTAINTY_MEASURE_WITH_UNIT (LENGTH_MEASURE( 1.000000000000000082E-05 ), #28, 'distance_accuracy_value', 'NONE');
#62 = APPROVAL_STATUS ( 'not_yet_approved' ) ;
#63 = AXIS2_PLACEMENT_3D ( 'NONE', #166, #186, #225 ) ;
#64 = COORDINATED_UNIVERSAL_TIME_OFFSET ( 1, 0, .AHEAD. ) ;
#65 = COORDINATED_UNIVERSAL_TIME_OFFSET ( 1, 0, .AHEAD. ) ;
#66 = CALENDAR_DATE ( 2021, 26, 11 ) ;
#67 = PERSON_AND_ORGANIZATION_ROLE ( 'classification_officer' ) ;
#68 = APPROVAL_PERSON_ORGANIZATION ( #217, #84, #238 ) ;
#69 = SHAPE_DEFINITION_REPRESENTATION ( #112, #202 ) ;
#70 = EDGE_LOOP ( 'NONE', ( #109 ) ) ;
#71 = ORIENTED_EDGE ( 'NONE', *, *, #110, .F. ) ;
#72 = EDGE_LOOP ( 'NONE', ( #228 ) ) ;
#73 = CC_DESIGN_APPROVAL ( #208, ( #22 ) ) ;
#74 = DIRECTION ( 'NONE',  ( 0.0000000000000000000, 1.000000000000000000, 0.0000000000000000000 ) ) ;
#75 = CALENDAR_DATE ( 2021, 26, 11 ) ;
#76 = ADVANCED_FACE ( 'NONE', ( #21 ), #230, .T. ) ;
#77 = CARTESIAN_POINT ( 'NONE',  ( 2.433562493173664138E-13, 1.499999999999990230, 69.70000000000001705 ) ) ;
#78 = AXIS2_PLACEMENT_3D ( 'NONE', #193, #232, #99 ) ;
#79 = DIRECTION ( 'NONE',  ( -3.145980511505450010E-30, 1.000000000000000000, -8.855147912081741918E-16 ) ) ;
#80 = DIRECTION ( 'NONE',  ( -3.491481338843133355E-15, 1.049697256412017316E-16, -1.000000000000000000 ) ) ;
#81 = AXIS2_PLACEMENT_3D ( 'NONE', #57, #123, #231 ) ;
#82 = CARTESIAN_POINT ( 'NONE',  ( -1.892735826383161356E-31, 1.814662432702592865, -5.421010862427522170E-17 ) ) ;
#83 = PERSON_AND_ORGANIZATION ( #49, #146 ) ;
#84 = APPROVAL ( #87, 'UNSPECIFIED' ) ;
#85 = AXIS2_PLACEMENT_3D ( 'NONE', #121, #216, #96 ) ;
#86 = VERTEX_POINT ( 'NONE', #10 ) ;
#87 = APPROVAL_STATUS ( 'not_yet_approved' ) ;
#88 = AXIS2_PLACEMENT_3D ( 'NONE', #155, #117, #235 ) ;
#89 = ORIENTED_EDGE ( 'NONE', *, *, #163, .F. ) ;
#90 = EDGE_LOOP ( 'NONE', ( #210 ) ) ;
#91 = EDGE_LOOP ( 'NONE', ( #16 ) ) ;
#92 = CIRCLE ( 'NONE', #78, 1.499999999999992673 ) ;
#93 = ADVANCED_FACE ( 'NONE', ( #35 ), #196, .T. ) ;
#94 = CARTESIAN_POINT ( 'NONE',  ( 8.728703347107833388E-16, 1.958999999999998964, 0.2500000000000000000 ) ) ;
#95 = DATE_AND_TIME ( #75, #7 ) ;
#96 = DIRECTION ( 'NONE',  ( -2.054263666574949533E-30, 1.000000000000000000, -5.883644983924240817E-16 ) ) ;
#97 = CIRCLE ( 'NONE', #44, 1.958999999999999853 ) ;
#98 = FACE_OUTER_BOUND ( 'NONE', #72, .T. ) ;
#99 = DIRECTION ( 'NONE',  ( 0.0000000000000000000, 1.000000000000000000, 0.0000000000000000000 ) ) ;
#100 = DIRECTION ( 'NONE',  ( 0.0000000000000000000, 1.000000000000000000, 0.0000000000000000000 ) ) ;
#101 = CLOSED_SHELL ( 'NONE', ( #182, #102, #135, #93 ) ) ;
#102 = ADVANCED_FACE ( 'NONE', ( #177, #36 ), #119, .T. ) ;
#103 = AXIS2_PLACEMENT_3D ( 'NONE', #197, #80, #100 ) ;
#104 = DATE_TIME_ROLE ( 'creation_date' ) ;
#105 = AXIS2_PLACEMENT_3D ( 'NONE', #214, #137, #136 ) ;
#106 = APPLICATION_CONTEXT ( 'configuration controlled 3d designs of mechanical parts and assemblies' ) ;
#107 = DATE_AND_TIME ( #127, #17 ) ;
#108 = COORDINATED_UNIVERSAL_TIME_OFFSET ( 1, 0, .AHEAD. ) ;
#109 = ORIENTED_EDGE ( 'NONE', *, *, #139, .T. ) ;
#110 = EDGE_CURVE ( 'NONE', #8, #8, #115, .T. ) ;
#111 = CC_DESIGN_APPROVAL ( #144, ( #215 ) ) ;
#112 = PRODUCT_DEFINITION_SHAPE ( 'NONE', 'NONE',  #134 ) ;
#113 = EDGE_LOOP ( 'NONE', ( #89 ) ) ;
#114 = PLANE ( 'NONE',  #120 ) ;
#115 = CIRCLE ( 'NONE', #88, 1.814662432702592865 ) ;
#116 = DIRECTION ( 'NONE',  ( 0.0000000000000000000, 1.000000000000000000, 0.0000000000000000000 ) ) ;
#117 = DIRECTION ( 'NONE',  ( -3.491481338843133355E-15, -5.883644983924240817E-16, -1.000000000000000000 ) ) ;
#118 = CC_DESIGN_PERSON_AND_ORGANIZATION_ASSIGNMENT ( #41, #43, ( #134 ) ) ;
#119 = CYLINDRICAL_SURFACE ( 'NONE', #85, 1.958999999999995856 ) ;
#120 = AXIS2_PLACEMENT_3D ( 'NONE', #188, #147, #242 ) ;
#121 = CARTESIAN_POINT ( 'NONE',  ( 0.0000000000000000000, 0.0000000000000000000, 0.0000000000000000000 ) ) ;
#122 = APPLICATION_CONTEXT ( 'configuration controlled 3d designs of mechanical parts and assemblies' ) ;
#123 = DIRECTION ( 'NONE',  ( 3.491481338843133355E-15, 5.883644983924240817E-16, 1.000000000000000000 ) ) ;
#124 = CALENDAR_DATE ( 2021, 26, 11 ) ;
#125 = DATE_AND_TIME ( #124, #48 ) ;
#126 = APPROVAL_STATUS ( 'not_yet_approved' ) ;
#127 = CALENDAR_DATE ( 2021, 26, 11 ) ;
#128 = CIRCLE ( 'NONE', #103, 1.199999999999997513 ) ;
#129 = EDGE_CURVE ( 'NONE', #19, #19, #167, .T. ) ;
#130 = ORIENTED_EDGE ( 'NONE', *, *, #192, .T. ) ;
#131 = ORIENTED_EDGE ( 'NONE', *, *, #171, .F. ) ;
#132 = EDGE_LOOP ( 'NONE', ( #130 ) ) ;
#133 = CARTESIAN_POINT ( 'NONE',  ( 3.591868561847547256E-14, 1.958999999999998964, 10.28752043405644123 ) ) ;
#134 = PRODUCT_DEFINITION ( 'UNKNOWN', '', #22, #218 ) ;
#135 = ADVANCED_FACE ( 'NONE', ( #25, #141 ), #58, .T. ) ;
#136 = DIRECTION ( 'NONE',  ( 3.664998382197393967E-31, 1.000000000000000000, 1.049697256412017316E-16 ) ) ;
#137 = DIRECTION ( 'NONE',  ( -3.491481338843133355E-15, 1.049697256412017316E-16, -1.000000000000000000 ) ) ;
#138 = AXIS2_PLACEMENT_3D ( 'NONE', #37, #151, #234 ) ;
#139 = EDGE_CURVE ( 'NONE', #1, #1, #207, .T. ) ;
#140 = CYLINDRICAL_SURFACE ( 'NONE', #105, 1.499999999999995337 ) ;
#141 = FACE_BOUND ( 'NONE', #30, .T. ) ;
#142 = DIRECTION ( 'NONE',  ( 1.000000000000000000, 0.0000000000000000000, 0.0000000000000000000 ) ) ;
#143 = APPROVAL_DATE_TIME ( #157, #84 ) ;
#144 = APPROVAL ( #62, 'UNSPECIFIED' ) ;
#145 = EDGE_LOOP ( 'NONE', ( #18 ) ) ;
#146 = ORGANIZATION ( 'UNSPECIFIED', 'UNSPECIFIED', '' ) ;
#147 = DIRECTION ( 'NONE',  ( -3.491481338843133355E-15, 1.049697256412017316E-16, -1.000000000000000000 ) ) ;
#148 = ORIENTED_EDGE ( 'NONE', *, *, #129, .T. ) ;
#149 = EDGE_CURVE ( 'NONE', #54, #54, #154, .T. ) ;
#150 = CARTESIAN_POINT ( 'NONE',  ( -1.958534342618880780E-30, 1.814662432702592865, -5.609465302964561048E-16 ) ) ;
#151 = DIRECTION ( 'NONE',  ( 3.491481338843133355E-15, -1.049697256412017316E-16, 1.000000000000000000 ) ) ;
#152 = DIRECTION ( 'NONE',  ( 2.054263666574949533E-30, -1.000000000000000000, 5.883644983924240817E-16 ) ) ;
#153 = DIRECTION ( 'NONE',  ( -3.491481338843133355E-15, 1.049697256412017316E-16, -1.000000000000000000 ) ) ;
#154 = CIRCLE ( 'NONE', #213, 1.958999999999992969 ) ;
#155 = CARTESIAN_POINT ( 'NONE',  ( 3.538521519961129332E-30, 5.962914411086492338E-31, 1.013472843344361766E-15 ) ) ;
#156 = PERSON_AND_ORGANIZATION_ROLE ( 'design_supplier' ) ;
#157 = DATE_AND_TIME ( #66, #199 ) ;
#158 = PRODUCT_RELATED_PRODUCT_CATEGORY ( 'detail', '', ( #204 ) ) ;
#159 = AXIS2_PLACEMENT_3D ( 'NONE', #24, #195, #60 ) ;
#160 = CARTESIAN_POINT ( 'NONE',  ( 0.0000000000000000000, 0.0000000000000000000, 0.0000000000000000000 ) ) ;
#161 = CARTESIAN_POINT ( 'NONE',  ( 2.444036937190193601E-13, 1.199999999999990186, 70.00000000000000000 ) ) ;
#162 = CC_DESIGN_PERSON_AND_ORGANIZATION_ASSIGNMENT ( #180, #67, ( #215 ) ) ;
#163 = EDGE_CURVE ( 'NONE', #211, #211, #97, .T. ) ;
#164 = APPROVAL_DATE_TIME ( #125, #208 ) ;
#165 = FACE_OUTER_BOUND ( 'NONE', #169, .T. ) ;
#166 = CARTESIAN_POINT ( 'NONE',  ( 2.433562493173664138E-13, -7.316389877191761450E-15, 69.70000000000001705 ) ) ;
#167 = CIRCLE ( 'NONE', #159, 1.958999999999998964 ) ;
#168 = CARTESIAN_POINT ( 'NONE',  ( 3.591868561847547256E-14, -1.079878197491161244E-15, 10.28752043405644123 ) ) ;
#169 = EDGE_LOOP ( 'NONE', ( #224 ) ) ;
#170 = ADVANCED_FACE ( 'NONE', ( #23, #59 ), #140, .T. ) ;
#171 = EDGE_CURVE ( 'NONE', #201, #201, #128, .T. ) ;
#172 = CARTESIAN_POINT ( 'NONE',  ( 3.591868561847547887E-14, 6.052811799885431668E-15, 10.28752043405644301 ) ) ;
#173 = APPROVAL_ROLE ( '' ) ;
#174 = DIRECTION ( 'NONE',  ( -3.491481338843133355E-15, 1.049697256412017316E-16, -1.000000000000000000 ) ) ;
#175 = CC_DESIGN_APPROVAL ( #84, ( #134 ) ) ;
#176 = PLANE ( 'NONE',  #203 ) ;
#177 = FACE_OUTER_BOUND ( 'NONE', #241, .T. ) ;
#178 = DIRECTION ( 'NONE',  ( 3.491481338843133355E-15, 5.883644983924240817E-16, 1.000000000000000000 ) ) ;
#179 = CONICAL_SURFACE ( 'NONE', #187, 1.958999999999999853, 0.5235987755982937086 ) ;
#180 = PERSON_AND_ORGANIZATION ( #49, #146 ) ;
#181 = DIRECTION ( 'NONE',  ( 0.0000000000000000000, 0.0000000000000000000, 1.000000000000000000 ) ) ;
#182 = ADVANCED_FACE ( 'NONE', ( #98 ), #176, .T. ) ;
#183 = PERSON_AND_ORGANIZATION_ROLE ( 'creator' ) ;
#184 = APPROVAL_PERSON_ORGANIZATION ( #83, #208, #185 ) ;
#185 = APPROVAL_ROLE ( '' ) ;
#186 = DIRECTION ( 'NONE',  ( -3.491481338843133355E-15, 1.049697256412017316E-16, -1.000000000000000000 ) ) ;
#187 = AXIS2_PLACEMENT_3D ( 'NONE', #168, #51, #74 ) ;
#188 = CARTESIAN_POINT ( 'NONE',  ( 3.591868561847547256E-14, 1.958999999999998964, 10.28752043405643946 ) ) ;
#189 = FACE_OUTER_BOUND ( 'NONE', #113, .T. ) ;
#190 = APPROVAL_PERSON_ORGANIZATION ( #198, #144, #173 ) ;
#191 = ORIENTED_EDGE ( 'NONE', *, *, #149, .T. ) ;
#192 = EDGE_CURVE ( 'NONE', #86, #86, #92, .T. ) ;
#193 = CARTESIAN_POINT ( 'NONE',  ( 3.869445280877825814E-14, -1.163330317703974832E-15, 11.08253175473057794 ) ) ;
#194 = CARTESIAN_POINT ( 'NONE',  ( 2.433562493173664138E-13, -7.316389877191761450E-15, 69.70000000000001705 ) ) ;
#195 = DIRECTION ( 'NONE',  ( -3.491481338843133355E-15, -5.883644983924240817E-16, -1.000000000000000000 ) ) ;
#196 = PLANE ( 'NONE',  #32 ) ;
#197 = CARTESIAN_POINT ( 'NONE',  ( 2.444036937190193601E-13, -7.347880794884121511E-15, 70.00000000000000000 ) ) ;
#198 = PERSON_AND_ORGANIZATION ( #49, #146 ) ;
#199 = LOCAL_TIME ( 14, 2, 15.00000000000000000, #65 ) ;
#200 = PERSON_AND_ORGANIZATION ( #49, #146 ) ;
#201 = VERTEX_POINT ( 'NONE', #161 ) ;
#202 = ADVANCED_BREP_SHAPE_REPRESENTATION ( '321295', ( #47, #46, #226 ), #233 ) ;
#203 = AXIS2_PLACEMENT_3D ( 'NONE', #5, #178, #152 ) ;
#204 = PRODUCT ( '321295', '321295', '', ( #239 ) ) ;
#205 = FACE_BOUND ( 'NONE', #145, .T. ) ;
#206 = CC_DESIGN_DATE_AND_TIME_ASSIGNMENT ( #27, #38, ( #215 ) ) ;
#207 = CIRCLE ( 'NONE', #229, 1.499999999999997558 ) ;
#208 = APPROVAL ( #126, 'UNSPECIFIED' ) ;
#209 = CC_DESIGN_PERSON_AND_ORGANIZATION_ASSIGNMENT ( #222, #219, ( #204 ) ) ;
#210 = ORIENTED_EDGE ( 'NONE', *, *, #129, .F. ) ;
#211 = VERTEX_POINT ( 'NONE', #34 ) ;
#212 = DIRECTION ( 'NONE',  ( -3.491481338843133355E-15, -5.883644983924240817E-16, -1.000000000000000000 ) ) ;
#213 = AXIS2_PLACEMENT_3D ( 'NONE', #172, #33, #79 ) ;
#214 = CARTESIAN_POINT ( 'NONE',  ( 0.0000000000000000000, 0.0000000000000000000, 0.0000000000000000000 ) ) ;
#215 = SECURITY_CLASSIFICATION ( '', '', #240 ) ;
#216 = DIRECTION ( 'NONE',  ( -3.491481338843133355E-15, -5.883644983924240817E-16, -1.000000000000000000 ) ) ;
#217 = PERSON_AND_ORGANIZATION ( #49, #146 ) ;
#218 = DESIGN_CONTEXT ( 'detailed design', #106, 'design' ) ;
#219 = PERSON_AND_ORGANIZATION_ROLE ( 'design_owner' ) ;
#220 = LOCAL_TIME ( 14, 2, 15.00000000000000000, #64 ) ;
#221 = CALENDAR_DATE ( 2021, 26, 11 ) ;
#222 = PERSON_AND_ORGANIZATION ( #49, #146 ) ;
#223 = CLOSED_SHELL ( 'NONE', ( #76, #13, #170, #42, #40 ) ) ;
#224 = ORIENTED_EDGE ( 'NONE', *, *, #163, .T. ) ;
#225 = DIRECTION ( 'NONE',  ( 0.0000000000000000000, 1.000000000000000000, 0.0000000000000000000 ) ) ;
#226 = AXIS2_PLACEMENT_3D ( 'NONE', #160, #181, #142 ) ;
#227 = FACE_BOUND ( 'NONE', #132, .T. ) ;
#228 = ORIENTED_EDGE ( 'NONE', *, *, #149, .F. ) ;
#229 = AXIS2_PLACEMENT_3D ( 'NONE', #194, #174, #3 ) ;
#230 = PLANE ( 'NONE',  #138 ) ;
#231 = DIRECTION ( 'NONE',  ( 2.054263666574949183E-30, -1.000000000000000000, 5.883644983924240817E-16 ) ) ;
#232 = DIRECTION ( 'NONE',  ( -3.491481338843133355E-15, 1.049697256412017316E-16, -1.000000000000000000 ) ) ;
#233 =( GEOMETRIC_REPRESENTATION_CONTEXT ( 3 ) GLOBAL_UNCERTAINTY_ASSIGNED_CONTEXT ( ( #61 ) ) GLOBAL_UNIT_ASSIGNED_CONTEXT ( ( #28, #26, #237 ) ) REPRESENTATION_CONTEXT ( 'NONE', 'WORKASPACE' ) );
#234 = DIRECTION ( 'NONE',  ( -3.664998382197393967E-31, -1.000000000000000000, -1.049697256412017316E-16 ) ) ;
#235 = DIRECTION ( 'NONE',  ( -2.054263666574949533E-30, 1.000000000000000000, -5.883644983924240817E-16 ) ) ;
#236 = COORDINATED_UNIVERSAL_TIME_OFFSET ( 1, 0, .AHEAD. ) ;
#237 =( NAMED_UNIT ( * ) SI_UNIT ( $, .STERADIAN. ) SOLID_ANGLE_UNIT ( ) );
#238 = APPROVAL_ROLE ( '' ) ;
#239 = MECHANICAL_CONTEXT ( 'NONE', #122, 'mechanical' ) ;
#240 = SECURITY_CLASSIFICATION_LEVEL ( 'unclassified' ) ;
#241 = EDGE_LOOP ( 'NONE', ( #191 ) ) ;
#242 = DIRECTION ( 'NONE',  ( 3.664998382197393967E-31, 1.000000000000000000, 1.049697256412017316E-16 ) ) ;
#243 = EDGE_LOOP ( 'NONE', ( #31 ) ) ;
ENDSEC;
END-ISO-10303-21;
