ISO-10303-21;
HEADER;
FILE_DESCRIPTION (( 'STEP AP203' ),
    '1' );
FILE_NAME ('321294.step',
    '2021-11-26T13:02:15',
    ( '' ),
    ( '' ),
    'SwSTEP 2.0',
    'SolidWorks 2019',
    '' );
FILE_SCHEMA (( 'CONFIG_CONTROL_DESIGN' ));
ENDSEC;

DATA;
#1 = ORIENTED_EDGE ( 'NONE', *, *, #69, .T. ) ;
#2 = AXIS2_PLACEMENT_3D ( 'NONE', #175, #149, #73 ) ;
#3 = PLANE ( 'NONE',  #210 ) ;
#4 = DIRECTION ( 'NONE',  ( -3.491481338843133355E-15, -5.876636038841603021E-16, -1.000000000000000000 ) ) ;
#5 = EDGE_LOOP ( 'NONE', ( #191 ) ) ;
#6 = APPROVAL ( #143, 'UNSPECIFIED' ) ;
#7 = ORIENTED_EDGE ( 'NONE', *, *, #58, .T. ) ;
#8 = CARTESIAN_POINT ( 'NONE',  ( 8.728703347107833388E-16, 1.953999999999998627, 0.2500000000000000000 ) ) ;
#9 = CARTESIAN_POINT ( 'NONE',  ( 2.433562493173664138E-13, 1.499999999999990230, 69.70000000000001705 ) ) ;
#10 = FACE_OUTER_BOUND ( 'NONE', #153, .T. ) ;
#11 = CARTESIAN_POINT ( 'NONE',  ( 0.0000000000000000000, 0.0000000000000000000, 0.0000000000000000000 ) ) ;
#12 = CONICAL_SURFACE ( 'NONE', #132, 1.499999999999997558, 0.7853981633974573828 ) ;
#13 = PERSON_AND_ORGANIZATION ( #81, #84 ) ;
#14 = APPROVAL_ROLE ( '' ) ;
#15 = APPROVAL_STATUS ( 'not_yet_approved' ) ;
#16 = EDGE_LOOP ( 'NONE', ( #92 ) ) ;
#17 = DIRECTION ( 'NONE',  ( -2.051816506478848706E-30, 1.000000000000000000, -5.876636038841603021E-16 ) ) ;
#18 = CONICAL_SURFACE ( 'NONE', #137, 1.809662432702592527, 0.5235987755982977054 ) ;
#19 = DIRECTION ( 'NONE',  ( 3.664998382197393967E-31, 1.000000000000000000, 1.049697256412017316E-16 ) ) ;
#20 = FACE_OUTER_BOUND ( 'NONE', #5, .T. ) ;
#21 = DIRECTION ( 'NONE',  ( 0.0000000000000000000, 1.000000000000000000, 0.0000000000000000000 ) ) ;
#22 = CARTESIAN_POINT ( 'NONE',  ( 3.869445280877825814E-14, 1.499999999999991562, 11.08253175473057794 ) ) ;
#23 = CARTESIAN_POINT ( 'NONE',  ( 2.433562493173664138E-13, -7.316389877191761450E-15, 69.70000000000001705 ) ) ;
#24 = LOCAL_TIME ( 14, 2, 15.00000000000000000, #164 ) ;
#25 = FACE_OUTER_BOUND ( 'NONE', #16, .T. ) ;
#26 = DIRECTION ( 'NONE',  ( 3.491481338843133355E-15, 5.876636038841603021E-16, 1.000000000000000000 ) ) ;
#27 = EDGE_CURVE ( 'NONE', #194, #194, #47, .T. ) ;
#28 = APPLICATION_PROTOCOL_DEFINITION ( 'international standard', 'config_control_design', 1994, #215 ) ;
#29 = COORDINATED_UNIVERSAL_TIME_OFFSET ( 1, 0, .AHEAD. ) ;
#30 = SECURITY_CLASSIFICATION_LEVEL ( 'unclassified' ) ;
#31 = ADVANCED_FACE ( 'NONE', ( #55 ), #3, .T. ) ;
#32 = PLANE ( 'NONE',  #162 ) ;
#33 = ORIENTED_EDGE ( 'NONE', *, *, #103, .T. ) ;
#34 = AXIS2_PLACEMENT_3D ( 'NONE', #232, #141, #160 ) ;
#35 = ORIENTED_EDGE ( 'NONE', *, *, #69, .F. ) ;
#36 = ORIENTED_EDGE ( 'NONE', *, *, #58, .F. ) ;
#37 = DIRECTION ( 'NONE',  ( 0.0000000000000000000, 1.000000000000000000, 0.0000000000000000000 ) ) ;
#38 = CIRCLE ( 'NONE', #129, 1.953999999999998627 ) ;
#39 = CARTESIAN_POINT ( 'NONE',  ( 2.444036937190193601E-13, -7.347880794884121511E-15, 70.00000000000000000 ) ) ;
#40 =( NAMED_UNIT ( * ) SI_UNIT ( $, .STERADIAN. ) SOLID_ANGLE_UNIT ( ) );
#41 = DIRECTION ( 'NONE',  ( 3.491481338843133355E-15, -1.049697256412017316E-16, 1.000000000000000000 ) ) ;
#42 = CYLINDRICAL_SURFACE ( 'NONE', #120, 1.953999999999995740 ) ;
#43 = CC_DESIGN_PERSON_AND_ORGANIZATION_ASSIGNMENT ( #82, #163, ( #108 ) ) ;
#44 = PERSON_AND_ORGANIZATION_ROLE ( 'creator' ) ;
#45 = DATE_TIME_ROLE ( 'classification_date' ) ;
#46 = CC_DESIGN_APPROVAL ( #128, ( #234 ) ) ;
#47 = CIRCLE ( 'NONE', #206, 1.953999999999999515 ) ;
#48 = PERSON_AND_ORGANIZATION ( #81, #84 ) ;
#49 = PERSON_AND_ORGANIZATION ( #81, #84 ) ;
#50 = CC_DESIGN_APPROVAL ( #6, ( #204 ) ) ;
#51 = ADVANCED_FACE ( 'NONE', ( #91 ), #32, .T. ) ;
#52 = EDGE_LOOP ( 'NONE', ( #222 ) ) ;
#53 = DIRECTION ( 'NONE',  ( 0.0000000000000000000, 1.000000000000000000, 0.0000000000000000000 ) ) ;
#54 = CARTESIAN_POINT ( 'NONE',  ( 2.433562493173664138E-13, -7.316389877191761450E-15, 69.70000000000001705 ) ) ;
#55 = FACE_OUTER_BOUND ( 'NONE', #110, .T. ) ;
#56 = CARTESIAN_POINT ( 'NONE',  ( 3.594892273383825392E-14, 6.050690649407981580E-15, 10.29618068809428699 ) ) ;
#57 = CARTESIAN_POINT ( 'NONE',  ( 3.523821667935532576E-30, 5.931069193427891245E-31, 1.009262638391507165E-15 ) ) ;
#58 = EDGE_CURVE ( 'NONE', #96, #96, #221, .T. ) ;
#59 = DIRECTION ( 'NONE',  ( 0.0000000000000000000, 1.000000000000000000, 0.0000000000000000000 ) ) ;
#60 = CARTESIAN_POINT ( 'NONE',  ( -1.892735826383154569E-31, 1.809662432702592527, -5.421010862427522170E-17 ) ) ;
#61 = CC_DESIGN_PERSON_AND_ORGANIZATION_ASSIGNMENT ( #48, #44, ( #80 ) ) ;
#62 = DIRECTION ( 'NONE',  ( 3.664998382197393967E-31, 1.000000000000000000, 1.049697256412017316E-16 ) ) ;
#63 = DATE_AND_TIME ( #105, #24 ) ;
#64 = CLOSED_SHELL ( 'NONE', ( #76, #142, #123, #51 ) ) ;
#65 = DATE_AND_TIME ( #237, #235 ) ;
#66 = APPROVAL_DATE_TIME ( #63, #128 ) ;
#67 = MANIFOLD_SOLID_BREP ( 'Corps-Déplacer/Copier1[1]', #88 ) ;
#68 = PERSON_AND_ORGANIZATION ( #81, #84 ) ;
#69 = EDGE_CURVE ( 'NONE', #121, #121, #101, .T. ) ;
#70 = PLANE ( 'NONE',  #2 ) ;
#71 = DIRECTION ( 'NONE',  ( -3.491481338843133355E-15, -5.876636038841603021E-16, -1.000000000000000000 ) ) ;
#72 = APPLICATION_CONTEXT ( 'configuration controlled 3d designs of mechanical parts and assemblies' ) ;
#73 = DIRECTION ( 'NONE',  ( 2.051816506478848706E-30, -1.000000000000000000, 5.876636038841603021E-16 ) ) ;
#74 = DIRECTION ( 'NONE',  ( -3.491481338843133355E-15, 1.049697256412017316E-16, -1.000000000000000000 ) ) ;
#75 = FACE_OUTER_BOUND ( 'NONE', #111, .T. ) ;
#76 = ADVANCED_FACE ( 'NONE', ( #224 ), #70, .T. ) ;
#77 = CARTESIAN_POINT ( 'NONE',  ( 2.444036937190193601E-13, 1.199999999999990186, 70.00000000000000000 ) ) ;
#78 = DIRECTION ( 'NONE',  ( -3.491481338843133355E-15, -5.876636038841603021E-16, -1.000000000000000000 ) ) ;
#79 = DIRECTION ( 'NONE',  ( -3.491481338843133355E-15, 1.049697256412017316E-16, -1.000000000000000000 ) ) ;
#80 = PRODUCT_DEFINITION_FORMATION_WITH_SPECIFIED_SOURCE ( 'ANY', '', #108, .NOT_KNOWN. ) ;
#81 = PERSON ( 'UNSPECIFIED', 'UNSPECIFIED', 'UNSPECIFIED', ('UNSPECIFIED'), ('UNSPECIFIED'), ('UNSPECIFIED') ) ;
#82 = PERSON_AND_ORGANIZATION ( #81, #84 ) ;
#83 = APPROVAL_PERSON_ORGANIZATION ( #126, #128, #14 ) ;
#84 = ORGANIZATION ( 'UNSPECIFIED', 'UNSPECIFIED', '' ) ;
#85 = APPROVAL_DATE_TIME ( #239, #113 ) ;
#86 = COORDINATED_UNIVERSAL_TIME_OFFSET ( 1, 0, .AHEAD. ) ;
#87 = ORIENTED_EDGE ( 'NONE', *, *, #27, .F. ) ;
#88 = CLOSED_SHELL ( 'NONE', ( #114, #148, #229, #184, #31 ) ) ;
#89 = DIRECTION ( 'NONE',  ( 0.0000000000000000000, 1.000000000000000000, 0.0000000000000000000 ) ) ;
#90 = CC_DESIGN_APPROVAL ( #113, ( #80 ) ) ;
#91 = FACE_OUTER_BOUND ( 'NONE', #171, .T. ) ;
#92 = ORIENTED_EDGE ( 'NONE', *, *, #238, .T. ) ;
#93 = EDGE_LOOP ( 'NONE', ( #109 ) ) ;
#94 = AXIS2_PLACEMENT_3D ( 'NONE', #207, #41, #181 ) ;
#95 = VERTEX_POINT ( 'NONE', #9 ) ;
#96 = VERTEX_POINT ( 'NONE', #230 ) ;
#97 = AXIS2_PLACEMENT_3D ( 'NONE', #56, #71, #154 ) ;
#98 = DIRECTION ( 'NONE',  ( -2.051816506478848706E-30, 1.000000000000000000, -5.876636038841602035E-16 ) ) ;
#99 = CARTESIAN_POINT ( 'NONE',  ( 8.728703347107873817E-16, 1.469159009710407658E-16, 0.2500000000000011657 ) ) ;
#100 = SHAPE_DEFINITION_REPRESENTATION ( #104, #208 ) ;
#101 = CIRCLE ( 'NONE', #145, 1.499999999999992673 ) ;
#102 = CALENDAR_DATE ( 2021, 26, 11 ) ;
#103 = EDGE_CURVE ( 'NONE', #95, #95, #125, .T. ) ;
#104 = PRODUCT_DEFINITION_SHAPE ( 'NONE', 'NONE',  #204 ) ;
#105 = CALENDAR_DATE ( 2021, 26, 11 ) ;
#106 = DIRECTION ( 'NONE',  ( 0.0000000000000000000, 0.0000000000000000000, 1.000000000000000000 ) ) ;
#107 = DATE_TIME_ROLE ( 'creation_date' ) ;
#108 = PRODUCT ( '321294', '321294', '', ( #218 ) ) ;
#109 = ORIENTED_EDGE ( 'NONE', *, *, #103, .F. ) ;
#110 = EDGE_LOOP ( 'NONE', ( #209 ) ) ;
#111 = EDGE_LOOP ( 'NONE', ( #7 ) ) ;
#112 = EDGE_LOOP ( 'NONE', ( #1 ) ) ;
#113 = APPROVAL ( #165, 'UNSPECIFIED' ) ;
#114 = ADVANCED_FACE ( 'NONE', ( #20 ), #133, .T. ) ;
#115 = CARTESIAN_POINT ( 'NONE',  ( 3.594892273383824761E-14, 1.953999999999998627, 10.29618068809428522 ) ) ;
#116 = AXIS2_PLACEMENT_3D ( 'NONE', #39, #236, #59 ) ;
#117 = CARTESIAN_POINT ( 'NONE',  ( 0.0000000000000000000, 0.0000000000000000000, 0.0000000000000000000 ) ) ;
#118 = VERTEX_POINT ( 'NONE', #60 ) ;
#119 = FACE_OUTER_BOUND ( 'NONE', #93, .T. ) ;
#120 = AXIS2_PLACEMENT_3D ( 'NONE', #11, #78, #98 ) ;
#121 = VERTEX_POINT ( 'NONE', #22 ) ;
#122 = CALENDAR_DATE ( 2021, 26, 11 ) ;
#123 = ADVANCED_FACE ( 'NONE', ( #25, #136 ), #18, .T. ) ;
#124 = APPLICATION_PROTOCOL_DEFINITION ( 'international standard', 'config_control_design', 1994, #72 ) ;
#125 = CIRCLE ( 'NONE', #231, 1.499999999999997558 ) ;
#126 = PERSON_AND_ORGANIZATION ( #81, #84 ) ;
#127 = COORDINATED_UNIVERSAL_TIME_OFFSET ( 1, 0, .AHEAD. ) ;
#128 = APPROVAL ( #15, 'UNSPECIFIED' ) ;
#129 = AXIS2_PLACEMENT_3D ( 'NONE', #99, #140, #159 ) ;
#130 = EDGE_LOOP ( 'NONE', ( #185 ) ) ;
#131 = EDGE_LOOP ( 'NONE', ( #33 ) ) ;
#132 = AXIS2_PLACEMENT_3D ( 'NONE', #23, #79, #211 ) ;
#133 = PLANE ( 'NONE',  #94 ) ;
#134 = CC_DESIGN_PERSON_AND_ORGANIZATION_ASSIGNMENT ( #49, #243, ( #204 ) ) ;
#135 = ORIENTED_EDGE ( 'NONE', *, *, #178, .T. ) ;
#136 = FACE_BOUND ( 'NONE', #205, .T. ) ;
#137 = AXIS2_PLACEMENT_3D ( 'NONE', #57, #26, #214 ) ;
#138 = LOCAL_TIME ( 14, 2, 15.00000000000000000, #127 ) ;
#139 =( NAMED_UNIT ( * ) PLANE_ANGLE_UNIT ( ) SI_UNIT ( $, .RADIAN. ) );
#140 = DIRECTION ( 'NONE',  ( -3.491481338843133355E-15, -5.876636038841603021E-16, -1.000000000000000000 ) ) ;
#141 = DIRECTION ( 'NONE',  ( -3.491481338843133355E-15, -5.876636038841603021E-16, -1.000000000000000000 ) ) ;
#142 = ADVANCED_FACE ( 'NONE', ( #75, #156 ), #42, .T. ) ;
#143 = APPROVAL_STATUS ( 'not_yet_approved' ) ;
#144 = DATE_AND_TIME ( #216, #192 ) ;
#145 = AXIS2_PLACEMENT_3D ( 'NONE', #228, #174, #89 ) ;
#146 = CARTESIAN_POINT ( 'NONE',  ( 0.0000000000000000000, 0.0000000000000000000, 0.0000000000000000000 ) ) ;
#147 = AXIS2_PLACEMENT_3D ( 'NONE', #117, #233, #62 ) ;
#148 = ADVANCED_FACE ( 'NONE', ( #158, #119 ), #12, .T. ) ;
#149 = DIRECTION ( 'NONE',  ( 3.491481338843133355E-15, 5.876636038841603021E-16, 1.000000000000000000 ) ) ;
#150 = DESIGN_CONTEXT ( 'detailed design', #215, 'design' ) ;
#151 = CARTESIAN_POINT ( 'NONE',  ( -1.951184416606082402E-30, 1.809662432702592527, -5.588414278200288040E-16 ) ) ;
#152 = PRODUCT_RELATED_PRODUCT_CATEGORY ( 'detail', '', ( #108 ) ) ;
#153 = EDGE_LOOP ( 'NONE', ( #35 ) ) ;
#154 = DIRECTION ( 'NONE',  ( -3.154030615168463640E-30, 1.000000000000000000, -8.877806939492393200E-16 ) ) ;
#155 = MANIFOLD_SOLID_BREP ( 'Corps-Déplacer/Copier1[2]', #64 ) ;
#156 = FACE_OUTER_BOUND ( 'NONE', #130, .T. ) ;
#157 = CIRCLE ( 'NONE', #116, 1.199999999999997513 ) ;
#158 = FACE_BOUND ( 'NONE', #52, .T. ) ;
#159 = DIRECTION ( 'NONE',  ( -2.069832591204297936E-30, 1.000000000000000000, -5.826060804041865227E-16 ) ) ;
#160 = DIRECTION ( 'NONE',  ( -2.051816506478848356E-30, 1.000000000000000000, -5.876636038841604007E-16 ) ) ;
#161 = CC_DESIGN_DATE_AND_TIME_ASSIGNMENT ( #144, #107, ( #204 ) ) ;
#162 = AXIS2_PLACEMENT_3D ( 'NONE', #151, #4, #17 ) ;
#163 = PERSON_AND_ORGANIZATION_ROLE ( 'design_owner' ) ;
#164 = COORDINATED_UNIVERSAL_TIME_OFFSET ( 1, 0, .AHEAD. ) ;
#165 = APPROVAL_STATUS ( 'not_yet_approved' ) ;
#166 = PERSON_AND_ORGANIZATION ( #81, #84 ) ;
#167 = APPROVAL_ROLE ( '' ) ;
#168 = CARTESIAN_POINT ( 'NONE',  ( 3.594892273383824761E-14, 1.953999999999998627, 10.29618068809428522 ) ) ;
#169 = AXIS2_PLACEMENT_3D ( 'NONE', #146, #106, #201 ) ;
#170 = APPROVAL_PERSON_ORGANIZATION ( #13, #113, #167 ) ;
#171 = EDGE_LOOP ( 'NONE', ( #135 ) ) ;
#172 = ORIENTED_EDGE ( 'NONE', *, *, #178, .F. ) ;
#173 = CC_DESIGN_PERSON_AND_ORGANIZATION_ASSIGNMENT ( #166, #203, ( #80 ) ) ;
#174 = DIRECTION ( 'NONE',  ( -3.491481338843133355E-15, 1.049697256412017316E-16, -1.000000000000000000 ) ) ;
#175 = CARTESIAN_POINT ( 'NONE',  ( 3.594892273383824761E-14, 6.050690649407980002E-15, 10.29618068809428522 ) ) ;
#176 = VERTEX_POINT ( 'NONE', #8 ) ;
#177 = DIRECTION ( 'NONE',  ( -3.491481338843133355E-15, 1.049697256412017316E-16, -1.000000000000000000 ) ) ;
#178 = EDGE_CURVE ( 'NONE', #118, #118, #188, .T. ) ;
#179 = CONICAL_SURFACE ( 'NONE', #219, 1.953999999999999515, 0.5235987755982929315 ) ;
#180 = CARTESIAN_POINT ( 'NONE',  ( 3.594892273383824761E-14, -1.080787261981496771E-15, 10.29618068809428522 ) ) ;
#181 = DIRECTION ( 'NONE',  ( -3.664998382197393967E-31, -1.000000000000000000, -1.049697256412017316E-16 ) ) ;
#182 = PERSON_AND_ORGANIZATION_ROLE ( 'classification_officer' ) ;
#183 = PERSON_AND_ORGANIZATION ( #81, #84 ) ;
#184 = ADVANCED_FACE ( 'NONE', ( #212, #197 ), #179, .T. ) ;
#185 = ORIENTED_EDGE ( 'NONE', *, *, #238, .F. ) ;
#186 = CARTESIAN_POINT ( 'NONE',  ( 3.594892273383824761E-14, -1.080787261981496771E-15, 10.29618068809428522 ) ) ;
#187 = UNCERTAINTY_MEASURE_WITH_UNIT (LENGTH_MEASURE( 1.000000000000000082E-05 ), #196, 'distance_accuracy_value', 'NONE');
#188 = CIRCLE ( 'NONE', #34, 1.809662432702592527 ) ;
#189 = EDGE_LOOP ( 'NONE', ( #87 ) ) ;
#190 = EDGE_LOOP ( 'NONE', ( #36 ) ) ;
#191 = ORIENTED_EDGE ( 'NONE', *, *, #195, .F. ) ;
#192 = LOCAL_TIME ( 14, 2, 15.00000000000000000, #29 ) ;
#193 = FACE_OUTER_BOUND ( 'NONE', #131, .T. ) ;
#194 = VERTEX_POINT ( 'NONE', #115 ) ;
#195 = EDGE_CURVE ( 'NONE', #200, #200, #157, .T. ) ;
#196 =( LENGTH_UNIT ( ) NAMED_UNIT ( * ) SI_UNIT ( .MILLI., .METRE. ) );
#197 = FACE_OUTER_BOUND ( 'NONE', #189, .T. ) ;
#198 =( GEOMETRIC_REPRESENTATION_CONTEXT ( 3 ) GLOBAL_UNCERTAINTY_ASSIGNED_CONTEXT ( ( #187 ) ) GLOBAL_UNIT_ASSIGNED_CONTEXT ( ( #196, #139, #40 ) ) REPRESENTATION_CONTEXT ( 'NONE', 'WORKASPACE' ) );
#199 = CC_DESIGN_DATE_AND_TIME_ASSIGNMENT ( #217, #45, ( #234 ) ) ;
#200 = VERTEX_POINT ( 'NONE', #77 ) ;
#201 = DIRECTION ( 'NONE',  ( 1.000000000000000000, 0.0000000000000000000, 0.0000000000000000000 ) ) ;
#202 = APPROVAL_ROLE ( '' ) ;
#203 = PERSON_AND_ORGANIZATION_ROLE ( 'design_supplier' ) ;
#204 = PRODUCT_DEFINITION ( 'UNKNOWN', '', #80, #150 ) ;
#205 = EDGE_LOOP ( 'NONE', ( #172 ) ) ;
#206 = AXIS2_PLACEMENT_3D ( 'NONE', #186, #227, #21 ) ;
#207 = CARTESIAN_POINT ( 'NONE',  ( 2.444036937190193601E-13, -7.347880794884121511E-15, 70.00000000000000000 ) ) ;
#208 = ADVANCED_BREP_SHAPE_REPRESENTATION ( '321294', ( #67, #155, #169 ), #198 ) ;
#209 = ORIENTED_EDGE ( 'NONE', *, *, #27, .T. ) ;
#210 = AXIS2_PLACEMENT_3D ( 'NONE', #168, #74, #19 ) ;
#211 = DIRECTION ( 'NONE',  ( 0.0000000000000000000, 1.000000000000000000, 0.0000000000000000000 ) ) ;
#212 = FACE_BOUND ( 'NONE', #112, .T. ) ;
#213 = CYLINDRICAL_SURFACE ( 'NONE', #147, 1.499999999999995337 ) ;
#214 = DIRECTION ( 'NONE',  ( 2.051816506478848356E-30, -1.000000000000000000, 5.876636038841604007E-16 ) ) ;
#215 = APPLICATION_CONTEXT ( 'configuration controlled 3d designs of mechanical parts and assemblies' ) ;
#216 = CALENDAR_DATE ( 2021, 26, 11 ) ;
#217 = DATE_AND_TIME ( #122, #240 ) ;
#218 = MECHANICAL_CONTEXT ( 'NONE', #72, 'mechanical' ) ;
#219 = AXIS2_PLACEMENT_3D ( 'NONE', #180, #177, #37 ) ;
#220 = APPROVAL_DATE_TIME ( #65, #6 ) ;
#221 = CIRCLE ( 'NONE', #97, 1.953999999999992632 ) ;
#222 = ORIENTED_EDGE ( 'NONE', *, *, #195, .T. ) ;
#223 = DIRECTION ( 'NONE',  ( -3.491481338843133355E-15, 1.049697256412017316E-16, -1.000000000000000000 ) ) ;
#224 = FACE_OUTER_BOUND ( 'NONE', #190, .T. ) ;
#225 = CC_DESIGN_SECURITY_CLASSIFICATION ( #234, ( #80 ) ) ;
#226 = APPROVAL_PERSON_ORGANIZATION ( #68, #6, #202 ) ;
#227 = DIRECTION ( 'NONE',  ( -3.491481338843133355E-15, 1.049697256412017316E-16, -1.000000000000000000 ) ) ;
#228 = CARTESIAN_POINT ( 'NONE',  ( 3.869445280877825814E-14, -1.163330317703974832E-15, 11.08253175473057794 ) ) ;
#229 = ADVANCED_FACE ( 'NONE', ( #193, #10 ), #213, .T. ) ;
#230 = CARTESIAN_POINT ( 'NONE',  ( 3.594892273383824761E-14, 1.953999999999998627, 10.29618068809428522 ) ) ;
#231 = AXIS2_PLACEMENT_3D ( 'NONE', #54, #223, #53 ) ;
#232 = CARTESIAN_POINT ( 'NONE',  ( 3.523821667935532576E-30, 5.931069193427891245E-31, 1.009262638391507165E-15 ) ) ;
#233 = DIRECTION ( 'NONE',  ( -3.491481338843133355E-15, 1.049697256412017316E-16, -1.000000000000000000 ) ) ;
#234 = SECURITY_CLASSIFICATION ( '', '', #30 ) ;
#235 = LOCAL_TIME ( 14, 2, 15.00000000000000000, #86 ) ;
#236 = DIRECTION ( 'NONE',  ( -3.491481338843133355E-15, 1.049697256412017316E-16, -1.000000000000000000 ) ) ;
#237 = CALENDAR_DATE ( 2021, 26, 11 ) ;
#238 = EDGE_CURVE ( 'NONE', #176, #176, #38, .T. ) ;
#239 = DATE_AND_TIME ( #102, #138 ) ;
#240 = LOCAL_TIME ( 14, 2, 15.00000000000000000, #242 ) ;
#241 = CC_DESIGN_PERSON_AND_ORGANIZATION_ASSIGNMENT ( #183, #182, ( #234 ) ) ;
#242 = COORDINATED_UNIVERSAL_TIME_OFFSET ( 1, 0, .AHEAD. ) ;
#243 = PERSON_AND_ORGANIZATION_ROLE ( 'creator' ) ;
ENDSEC;
END-ISO-10303-21;
