ISO-10303-21;
HEADER;
FILE_DESCRIPTION (( 'STEP AP203' ),
    '1' );
FILE_NAME ('321293.step',
    '2021-11-26T13:02:14',
    ( '' ),
    ( '' ),
    'SwSTEP 2.0',
    'SolidWorks 2019',
    '' );
FILE_SCHEMA (( 'CONFIG_CONTROL_DESIGN' ));
ENDSEC;

DATA;
#1 = DIRECTION ( 'NONE',  ( -3.491481338843133355E-15, -5.869638874483242530E-16, -1.000000000000000000 ) ) ;
#2 = PLANE ( 'NONE',  #168 ) ;
#3 = AXIS2_PLACEMENT_3D ( 'NONE', #94, #99, #242 ) ;
#4 = APPROVAL_DATE_TIME ( #64, #59 ) ;
#5 = FACE_OUTER_BOUND ( 'NONE', #29, .T. ) ;
#6 = DIRECTION ( 'NONE',  ( 1.000000000000000000, 0.0000000000000000000, 0.0000000000000000000 ) ) ;
#7 = LOCAL_TIME ( 14, 2, 14.00000000000000000, #182 ) ;
#8 = DATE_AND_TIME ( #88, #156 ) ;
#9 = EDGE_LOOP ( 'NONE', ( #31 ) ) ;
#10 = LOCAL_TIME ( 14, 2, 14.00000000000000000, #135 ) ;
#11 = DATE_TIME_ROLE ( 'classification_date' ) ;
#12 = ORIENTED_EDGE ( 'NONE', *, *, #127, .F. ) ;
#13 = DATE_AND_TIME ( #125, #38 ) ;
#14 = EDGE_CURVE ( 'NONE', #118, #118, #112, .T. ) ;
#15 = SECURITY_CLASSIFICATION ( '', '', #83 ) ;
#16 = DIRECTION ( 'NONE',  ( -3.491481338843133355E-15, -5.869638874483242530E-16, -1.000000000000000000 ) ) ;
#17 = DIRECTION ( 'NONE',  ( 0.0000000000000000000, 1.000000000000000000, 0.0000000000000000000 ) ) ;
#18 = DIRECTION ( 'NONE',  ( -3.491481338843133355E-15, 1.049697256412017316E-16, -1.000000000000000000 ) ) ;
#19 = FACE_OUTER_BOUND ( 'NONE', #70, .T. ) ;
#20 = DIRECTION ( 'NONE',  ( 0.0000000000000000000, 1.000000000000000000, 0.0000000000000000000 ) ) ;
#21 = ADVANCED_FACE ( 'NONE', ( #194 ), #192, .T. ) ;
#22 = PERSON_AND_ORGANIZATION_ROLE ( 'design_owner' ) ;
#23 = APPROVAL_ROLE ( '' ) ;
#24 = DIRECTION ( 'NONE',  ( 0.0000000000000000000, 0.0000000000000000000, 1.000000000000000000 ) ) ;
#25 = APPROVAL_STATUS ( 'not_yet_approved' ) ;
#26 = CIRCLE ( 'NONE', #3, 1.948999999999999844 ) ;
#27 = VERTEX_POINT ( 'NONE', #215 ) ;
#28 = APPROVAL_STATUS ( 'not_yet_approved' ) ;
#29 = EDGE_LOOP ( 'NONE', ( #167 ) ) ;
#30 = CONICAL_SURFACE ( 'NONE', #54, 1.948999999999999844, 0.5235987755982934866 ) ;
#31 = ORIENTED_EDGE ( 'NONE', *, *, #157, .T. ) ;
#32 = CIRCLE ( 'NONE', #232, 1.499999999999997558 ) ;
#33 = DIRECTION ( 'NONE',  ( -3.491481338843133355E-15, 1.049697256412017316E-16, -1.000000000000000000 ) ) ;
#34 = CYLINDRICAL_SURFACE ( 'NONE', #181, 1.499999999999995337 ) ;
#35 = APPLICATION_CONTEXT ( 'configuration controlled 3d designs of mechanical parts and assemblies' ) ;
#36 = DESIGN_CONTEXT ( 'detailed design', #195, 'design' ) ;
#37 = CARTESIAN_POINT ( 'NONE',  ( 3.597915984920103527E-14, 1.948999999999998733, 10.30484094213213098 ) ) ;
#38 = LOCAL_TIME ( 14, 2, 14.00000000000000000, #106 ) ;
#39 = FACE_OUTER_BOUND ( 'NONE', #223, .T. ) ;
#40 = DIRECTION ( 'NONE',  ( -3.491481338843133355E-15, 1.049697256412017316E-16, -1.000000000000000000 ) ) ;
#41 = EDGE_CURVE ( 'NONE', #178, #178, #26, .T. ) ;
#42 = PRODUCT_RELATED_PRODUCT_CATEGORY ( 'detail', '', ( #172 ) ) ;
#43 = FACE_OUTER_BOUND ( 'NONE', #69, .T. ) ;
#44 = CARTESIAN_POINT ( 'NONE',  ( 0.0000000000000000000, 0.0000000000000000000, 0.0000000000000000000 ) ) ;
#45 = CLOSED_SHELL ( 'NONE', ( #21, #116, #126, #81, #139 ) ) ;
#46 = PERSON_AND_ORGANIZATION ( #84, #120 ) ;
#47 = CARTESIAN_POINT ( 'NONE',  ( 3.597915984920103527E-14, 6.048569498930528336E-15, 10.30484094213213098 ) ) ;
#48 = CIRCLE ( 'NONE', #66, 1.804662432702592634 ) ;
#49 = APPROVAL_ROLE ( '' ) ;
#50 = CC_DESIGN_PERSON_AND_ORGANIZATION_ASSIGNMENT ( #78, #230, ( #165 ) ) ;
#51 = ORIENTED_EDGE ( 'NONE', *, *, #204, .F. ) ;
#52 = PERSON_AND_ORGANIZATION_ROLE ( 'creator' ) ;
#53 = FACE_BOUND ( 'NONE', #89, .T. ) ;
#54 = AXIS2_PLACEMENT_3D ( 'NONE', #209, #40, #226 ) ;
#55 = ORIENTED_EDGE ( 'NONE', *, *, #41, .T. ) ;
#56 = DIRECTION ( 'NONE',  ( -3.491481338843133355E-15, -5.869638874483242530E-16, -1.000000000000000000 ) ) ;
#57 = DIRECTION ( 'NONE',  ( -3.491481338843133355E-15, 1.049697256412017316E-16, -1.000000000000000000 ) ) ;
#58 = AXIS2_PLACEMENT_3D ( 'NONE', #97, #176, #151 ) ;
#59 = APPROVAL ( #25, 'UNSPECIFIED' ) ;
#60 = DIRECTION ( 'NONE',  ( -2.049373459600645517E-30, 1.000000000000000000, -5.869638874483242530E-16 ) ) ;
#61 = CARTESIAN_POINT ( 'NONE',  ( 3.597915984920102896E-14, 1.948999999999998733, 10.30484094213213098 ) ) ;
#62 = AXIS2_PLACEMENT_3D ( 'NONE', #44, #24, #6 ) ;
#63 = DIRECTION ( 'NONE',  ( -3.491481338843133355E-15, 1.049697256412017316E-16, -1.000000000000000000 ) ) ;
#64 = DATE_AND_TIME ( #213, #10 ) ;
#65 = APPROVAL_ROLE ( '' ) ;
#66 = AXIS2_PLACEMENT_3D ( 'NONE', #171, #1, #75 ) ;
#67 = EDGE_LOOP ( 'NONE', ( #164 ) ) ;
#68 = COORDINATED_UNIVERSAL_TIME_OFFSET ( 1, 0, .AHEAD. ) ;
#69 = EDGE_LOOP ( 'NONE', ( #12 ) ) ;
#70 = EDGE_LOOP ( 'NONE', ( #123 ) ) ;
#71 = DIRECTION ( 'NONE',  ( -2.049373459600645517E-30, 1.000000000000000000, -5.869638874483242530E-16 ) ) ;
#72 = FACE_BOUND ( 'NONE', #169, .T. ) ;
#73 = AXIS2_PLACEMENT_3D ( 'NONE', #119, #63, #217 ) ;
#74 = CARTESIAN_POINT ( 'NONE',  ( -1.943850437878672412E-30, 1.804662432702592634, -5.567408928276694377E-16 ) ) ;
#75 = DIRECTION ( 'NONE',  ( -2.049373459600645167E-30, 1.000000000000000000, -5.869638874483242530E-16 ) ) ;
#76 = CC_DESIGN_PERSON_AND_ORGANIZATION_ASSIGNMENT ( #108, #148, ( #15 ) ) ;
#77 = AXIS2_PLACEMENT_3D ( 'NONE', #154, #16, #228 ) ;
#78 = PERSON_AND_ORGANIZATION ( #84, #120 ) ;
#79 = CIRCLE ( 'NONE', #73, 1.499999999999992673 ) ;
#80 = CARTESIAN_POINT ( 'NONE',  ( 3.869445280877825814E-14, 1.499999999999991562, 11.08253175473057794 ) ) ;
#81 = ADVANCED_FACE ( 'NONE', ( #53, #111 ), #30, .T. ) ;
#82 = APPROVAL ( #28, 'UNSPECIFIED' ) ;
#83 = SECURITY_CLASSIFICATION_LEVEL ( 'unclassified' ) ;
#84 = PERSON ( 'UNSPECIFIED', 'UNSPECIFIED', 'UNSPECIFIED', ('UNSPECIFIED'), ('UNSPECIFIED'), ('UNSPECIFIED') ) ;
#85 = APPROVAL_DATE_TIME ( #13, #199 ) ;
#86 = EDGE_LOOP ( 'NONE', ( #220 ) ) ;
#87 =( GEOMETRIC_REPRESENTATION_CONTEXT ( 3 ) GLOBAL_UNCERTAINTY_ASSIGNED_CONTEXT ( ( #131 ) ) GLOBAL_UNIT_ASSIGNED_CONTEXT ( ( #231, #103, #138 ) ) REPRESENTATION_CONTEXT ( 'NONE', 'WORKASPACE' ) );
#88 = CALENDAR_DATE ( 2021, 26, 11 ) ;
#89 = EDGE_LOOP ( 'NONE', ( #227 ) ) ;
#90 = EDGE_LOOP ( 'NONE', ( #92 ) ) ;
#91 = APPROVAL_PERSON_ORGANIZATION ( #197, #59, #23 ) ;
#92 = ORIENTED_EDGE ( 'NONE', *, *, #127, .T. ) ;
#93 = EDGE_CURVE ( 'NONE', #180, #180, #32, .T. ) ;
#94 = CARTESIAN_POINT ( 'NONE',  ( 3.597915984920102896E-14, -1.081696326471832495E-15, 10.30484094213213098 ) ) ;
#95 = FACE_OUTER_BOUND ( 'NONE', #170, .T. ) ;
#96 = CC_DESIGN_APPROVAL ( #199, ( #133 ) ) ;
#97 = CARTESIAN_POINT ( 'NONE',  ( 2.433562493173664138E-13, -7.316389877191761450E-15, 69.70000000000001705 ) ) ;
#98 = DIRECTION ( 'NONE',  ( 3.664998382197393967E-31, 1.000000000000000000, 1.049697256412017316E-16 ) ) ;
#99 = DIRECTION ( 'NONE',  ( -3.491481338843133355E-15, 1.049697256412017316E-16, -1.000000000000000000 ) ) ;
#100 = CLOSED_SHELL ( 'NONE', ( #193, #174, #205, #104 ) ) ;
#101 = VERTEX_POINT ( 'NONE', #235 ) ;
#102 = DIRECTION ( 'NONE',  ( 2.049373459600645868E-30, -1.000000000000000000, 5.869638874483242530E-16 ) ) ;
#103 =( NAMED_UNIT ( * ) PLANE_ANGLE_UNIT ( ) SI_UNIT ( $, .RADIAN. ) );
#104 = ADVANCED_FACE ( 'NONE', ( #130 ), #2, .T. ) ;
#105 = VERTEX_POINT ( 'NONE', #80 ) ;
#106 = COORDINATED_UNIVERSAL_TIME_OFFSET ( 1, 0, .AHEAD. ) ;
#107 = AXIS2_PLACEMENT_3D ( 'NONE', #158, #179, #102 ) ;
#108 = PERSON_AND_ORGANIZATION ( #84, #120 ) ;
#109 = CARTESIAN_POINT ( 'NONE',  ( 2.444036937190193601E-13, -7.347880794884121511E-15, 70.00000000000000000 ) ) ;
#110 = CARTESIAN_POINT ( 'NONE',  ( 3.597915984920103527E-14, 6.048569498930528336E-15, 10.30484094213213098 ) ) ;
#111 = FACE_OUTER_BOUND ( 'NONE', #145, .T. ) ;
#112 = CIRCLE ( 'NONE', #77, 1.948999999999998511 ) ;
#113 = FACE_OUTER_BOUND ( 'NONE', #90, .T. ) ;
#114 = DIRECTION ( 'NONE',  ( -3.491481338843133355E-15, 1.049697256412017316E-16, -1.000000000000000000 ) ) ;
#115 = CARTESIAN_POINT ( 'NONE',  ( 8.728703347107833388E-16, 1.948999999999998733, 0.2500000000000000000 ) ) ;
#116 = ADVANCED_FACE ( 'NONE', ( #72, #39 ), #191, .T. ) ;
#117 = MECHANICAL_CONTEXT ( 'NONE', #35, 'mechanical' ) ;
#118 = VERTEX_POINT ( 'NONE', #115 ) ;
#119 = CARTESIAN_POINT ( 'NONE',  ( 3.869445280877825814E-14, -1.163330317703974832E-15, 11.08253175473057794 ) ) ;
#120 = ORGANIZATION ( 'UNSPECIFIED', 'UNSPECIFIED', '' ) ;
#121 = DATE_AND_TIME ( #200, #142 ) ;
#122 = EDGE_LOOP ( 'NONE', ( #51 ) ) ;
#123 = ORIENTED_EDGE ( 'NONE', *, *, #14, .F. ) ;
#124 = DATE_AND_TIME ( #238, #7 ) ;
#125 = CALENDAR_DATE ( 2021, 26, 11 ) ;
#126 = ADVANCED_FACE ( 'NONE', ( #206, #150 ), #34, .T. ) ;
#127 = EDGE_CURVE ( 'NONE', #27, #27, #152, .T. ) ;
#128 = CARTESIAN_POINT ( 'NONE',  ( 2.444036937190193601E-13, -7.347880794884121511E-15, 70.00000000000000000 ) ) ;
#129 = CC_DESIGN_APPROVAL ( #82, ( #15 ) ) ;
#130 = FACE_OUTER_BOUND ( 'NONE', #9, .T. ) ;
#131 = UNCERTAINTY_MEASURE_WITH_UNIT (LENGTH_MEASURE( 1.000000000000000082E-05 ), #231, 'distance_accuracy_value', 'NONE');
#132 = CARTESIAN_POINT ( 'NONE',  ( 0.0000000000000000000, 0.0000000000000000000, 0.0000000000000000000 ) ) ;
#133 = PRODUCT_DEFINITION_FORMATION_WITH_SPECIFIED_SOURCE ( 'ANY', '', #172, .NOT_KNOWN. ) ;
#134 = CARTESIAN_POINT ( 'NONE',  ( 2.433562493173664138E-13, -7.316389877191761450E-15, 69.70000000000001705 ) ) ;
#135 = COORDINATED_UNIVERSAL_TIME_OFFSET ( 1, 0, .AHEAD. ) ;
#136 = EDGE_CURVE ( 'NONE', #159, #159, #239, .T. ) ;
#137 = PLANE ( 'NONE',  #185 ) ;
#138 =( NAMED_UNIT ( * ) SI_UNIT ( $, .STERADIAN. ) SOLID_ANGLE_UNIT ( ) );
#139 = ADVANCED_FACE ( 'NONE', ( #95 ), #153, .T. ) ;
#140 = DIRECTION ( 'NONE',  ( 2.049373459600645517E-30, -1.000000000000000000, 5.869638874483242530E-16 ) ) ;
#141 = PERSON_AND_ORGANIZATION ( #84, #120 ) ;
#142 = LOCAL_TIME ( 14, 2, 14.00000000000000000, #144 ) ;
#143 = EDGE_LOOP ( 'NONE', ( #149 ) ) ;
#144 = COORDINATED_UNIVERSAL_TIME_OFFSET ( 1, 0, .AHEAD. ) ;
#145 = EDGE_LOOP ( 'NONE', ( #243 ) ) ;
#146 = APPROVAL_PERSON_ORGANIZATION ( #166, #199, #65 ) ;
#147 = CC_DESIGN_PERSON_AND_ORGANIZATION_ASSIGNMENT ( #222, #52, ( #133 ) ) ;
#148 = PERSON_AND_ORGANIZATION_ROLE ( 'classification_officer' ) ;
#149 = ORIENTED_EDGE ( 'NONE', *, *, #157, .F. ) ;
#150 = FACE_OUTER_BOUND ( 'NONE', #122, .T. ) ;
#151 = DIRECTION ( 'NONE',  ( 0.0000000000000000000, 1.000000000000000000, 0.0000000000000000000 ) ) ;
#152 = CIRCLE ( 'NONE', #236, 1.948999999999992516 ) ;
#153 = PLANE ( 'NONE',  #177 ) ;
#154 = CARTESIAN_POINT ( 'NONE',  ( 8.728703347107873817E-16, 1.467409718620817288E-16, 0.2500000000000011657 ) ) ;
#155 = CYLINDRICAL_SURFACE ( 'NONE', #203, 1.948999999999995403 ) ;
#156 = LOCAL_TIME ( 14, 2, 14.00000000000000000, #68 ) ;
#157 = EDGE_CURVE ( 'NONE', #101, #101, #48, .T. ) ;
#158 = CARTESIAN_POINT ( 'NONE',  ( 3.509153710480712597E-30, 5.899348453169584224E-31, 1.005061568406788432E-15 ) ) ;
#159 = VERTEX_POINT ( 'NONE', #216 ) ;
#160 = APPLICATION_PROTOCOL_DEFINITION ( 'international standard', 'config_control_design', 1994, #35 ) ;
#161 = APPLICATION_PROTOCOL_DEFINITION ( 'international standard', 'config_control_design', 1994, #195 ) ;
#162 = PERSON_AND_ORGANIZATION ( #84, #120 ) ;
#163 = ORIENTED_EDGE ( 'NONE', *, *, #136, .T. ) ;
#164 = ORIENTED_EDGE ( 'NONE', *, *, #136, .F. ) ;
#165 = PRODUCT_DEFINITION ( 'UNKNOWN', '', #133, #36 ) ;
#166 = PERSON_AND_ORGANIZATION ( #84, #120 ) ;
#167 = ORIENTED_EDGE ( 'NONE', *, *, #14, .T. ) ;
#168 = AXIS2_PLACEMENT_3D ( 'NONE', #74, #56, #71 ) ;
#169 = EDGE_LOOP ( 'NONE', ( #163 ) ) ;
#170 = EDGE_LOOP ( 'NONE', ( #55 ) ) ;
#171 = CARTESIAN_POINT ( 'NONE',  ( 3.509153710480712597E-30, 5.899348453169584224E-31, 1.005061568406788432E-15 ) ) ;
#172 = PRODUCT ( '321293', '321293', '', ( #117 ) ) ;
#173 = CARTESIAN_POINT ( 'NONE',  ( 0.0000000000000000000, 0.0000000000000000000, 0.0000000000000000000 ) ) ;
#174 = ADVANCED_FACE ( 'NONE', ( #113, #19 ), #155, .T. ) ;
#175 = CC_DESIGN_DATE_AND_TIME_ASSIGNMENT ( #8, #11, ( #15 ) ) ;
#176 = DIRECTION ( 'NONE',  ( -3.491481338843133355E-15, 1.049697256412017316E-16, -1.000000000000000000 ) ) ;
#177 = AXIS2_PLACEMENT_3D ( 'NONE', #37, #18, #98 ) ;
#178 = VERTEX_POINT ( 'NONE', #61 ) ;
#179 = DIRECTION ( 'NONE',  ( 3.491481338843133355E-15, 5.869638874483242530E-16, 1.000000000000000000 ) ) ;
#180 = VERTEX_POINT ( 'NONE', #196 ) ;
#181 = AXIS2_PLACEMENT_3D ( 'NONE', #132, #114, #190 ) ;
#182 = COORDINATED_UNIVERSAL_TIME_OFFSET ( 1, 0, .AHEAD. ) ;
#183 = CC_DESIGN_PERSON_AND_ORGANIZATION_ASSIGNMENT ( #162, #219, ( #133 ) ) ;
#184 = CC_DESIGN_DATE_AND_TIME_ASSIGNMENT ( #124, #186, ( #165 ) ) ;
#185 = AXIS2_PLACEMENT_3D ( 'NONE', #47, #233, #140 ) ;
#186 = DATE_TIME_ROLE ( 'creation_date' ) ;
#187 = CC_DESIGN_SECURITY_CLASSIFICATION ( #15, ( #133 ) ) ;
#188 = DIRECTION ( 'NONE',  ( -3.664998382197393967E-31, -1.000000000000000000, -1.049697256412017316E-16 ) ) ;
#189 = DIRECTION ( 'NONE',  ( -3.162122022595781303E-30, 1.000000000000000000, -8.900582226663999879E-16 ) ) ;
#190 = DIRECTION ( 'NONE',  ( 3.664998382197393967E-31, 1.000000000000000000, 1.049697256412017316E-16 ) ) ;
#191 = CONICAL_SURFACE ( 'NONE', #58, 1.499999999999997558, 0.7853981633974573828 ) ;
#192 = PLANE ( 'NONE',  #201 ) ;
#193 = ADVANCED_FACE ( 'NONE', ( #43 ), #137, .T. ) ;
#194 = FACE_OUTER_BOUND ( 'NONE', #67, .T. ) ;
#195 = APPLICATION_CONTEXT ( 'configuration controlled 3d designs of mechanical parts and assemblies' ) ;
#196 = CARTESIAN_POINT ( 'NONE',  ( 2.433562493173664138E-13, 1.499999999999990230, 69.70000000000001705 ) ) ;
#197 = PERSON_AND_ORGANIZATION ( #84, #120 ) ;
#198 = FACE_BOUND ( 'NONE', #143, .T. ) ;
#199 = APPROVAL ( #240, 'UNSPECIFIED' ) ;
#200 = CALENDAR_DATE ( 2021, 26, 11 ) ;
#201 = AXIS2_PLACEMENT_3D ( 'NONE', #109, #225, #188 ) ;
#202 = APPROVAL_DATE_TIME ( #121, #82 ) ;
#203 = AXIS2_PLACEMENT_3D ( 'NONE', #173, #229, #60 ) ;
#204 = EDGE_CURVE ( 'NONE', #105, #105, #79, .T. ) ;
#205 = ADVANCED_FACE ( 'NONE', ( #5, #198 ), #210, .T. ) ;
#206 = FACE_OUTER_BOUND ( 'NONE', #86, .T. ) ;
#207 = ORIENTED_EDGE ( 'NONE', *, *, #93, .F. ) ;
#208 = MANIFOLD_SOLID_BREP ( 'Corps-Déplacer/Copier1[2]', #100 ) ;
#209 = CARTESIAN_POINT ( 'NONE',  ( 3.597915984920102896E-14, -1.081696326471832495E-15, 10.30484094213213098 ) ) ;
#210 = CONICAL_SURFACE ( 'NONE', #107, 1.804662432702592634, 0.5235987755982970393 ) ;
#211 = DIRECTION ( 'NONE',  ( -3.491481338843133355E-15, -5.869638874483242530E-16, -1.000000000000000000 ) ) ;
#212 = MANIFOLD_SOLID_BREP ( 'Corps-Déplacer/Copier1[1]', #45 ) ;
#213 = CALENDAR_DATE ( 2021, 26, 11 ) ;
#214 = AXIS2_PLACEMENT_3D ( 'NONE', #128, #33, #17 ) ;
#215 = CARTESIAN_POINT ( 'NONE',  ( 3.597915984920102896E-14, 1.948999999999998733, 10.30484094213213098 ) ) ;
#216 = CARTESIAN_POINT ( 'NONE',  ( 2.444036937190193601E-13, 1.199999999999990186, 70.00000000000000000 ) ) ;
#217 = DIRECTION ( 'NONE',  ( 0.0000000000000000000, 1.000000000000000000, 0.0000000000000000000 ) ) ;
#218 = APPROVAL_PERSON_ORGANIZATION ( #141, #82, #49 ) ;
#219 = PERSON_AND_ORGANIZATION_ROLE ( 'design_supplier' ) ;
#220 = ORIENTED_EDGE ( 'NONE', *, *, #93, .T. ) ;
#221 = ADVANCED_BREP_SHAPE_REPRESENTATION ( '321293', ( #212, #208, #62 ), #87 ) ;
#222 = PERSON_AND_ORGANIZATION ( #84, #120 ) ;
#223 = EDGE_LOOP ( 'NONE', ( #207 ) ) ;
#224 = CC_DESIGN_APPROVAL ( #59, ( #165 ) ) ;
#225 = DIRECTION ( 'NONE',  ( 3.491481338843133355E-15, -1.049697256412017316E-16, 1.000000000000000000 ) ) ;
#226 = DIRECTION ( 'NONE',  ( 0.0000000000000000000, 1.000000000000000000, 0.0000000000000000000 ) ) ;
#227 = ORIENTED_EDGE ( 'NONE', *, *, #204, .T. ) ;
#228 = DIRECTION ( 'NONE',  ( -2.075142577328475437E-30, 1.000000000000000000, -5.841007086248232911E-16 ) ) ;
#229 = DIRECTION ( 'NONE',  ( -3.491481338843133355E-15, -5.869638874483242530E-16, -1.000000000000000000 ) ) ;
#230 = PERSON_AND_ORGANIZATION_ROLE ( 'creator' ) ;
#231 =( LENGTH_UNIT ( ) NAMED_UNIT ( * ) SI_UNIT ( .MILLI., .METRE. ) );
#232 = AXIS2_PLACEMENT_3D ( 'NONE', #134, #57, #20 ) ;
#233 = DIRECTION ( 'NONE',  ( 3.491481338843133355E-15, 5.869638874483242530E-16, 1.000000000000000000 ) ) ;
#234 = PRODUCT_DEFINITION_SHAPE ( 'NONE', 'NONE',  #165 ) ;
#235 = CARTESIAN_POINT ( 'NONE',  ( -1.892735826383161356E-31, 1.804662432702592634, -5.421010862427522170E-17 ) ) ;
#236 = AXIS2_PLACEMENT_3D ( 'NONE', #110, #211, #189 ) ;
#237 = SHAPE_DEFINITION_REPRESENTATION ( #234, #221 ) ;
#238 = CALENDAR_DATE ( 2021, 26, 11 ) ;
#239 = CIRCLE ( 'NONE', #214, 1.199999999999997513 ) ;
#240 = APPROVAL_STATUS ( 'not_yet_approved' ) ;
#241 = CC_DESIGN_PERSON_AND_ORGANIZATION_ASSIGNMENT ( #46, #22, ( #172 ) ) ;
#242 = DIRECTION ( 'NONE',  ( 0.0000000000000000000, 1.000000000000000000, 0.0000000000000000000 ) ) ;
#243 = ORIENTED_EDGE ( 'NONE', *, *, #41, .F. ) ;
ENDSEC;
END-ISO-10303-21;
