ISO-10303-21;
HEADER;
FILE_DESCRIPTION (( 'STEP AP203' ),
    '1' );
FILE_NAME ('321292.step',
    '2021-11-26T13:02:13',
    ( '' ),
    ( '' ),
    'SwSTEP 2.0',
    'SolidWorks 2019',
    '' );
FILE_SCHEMA (( 'CONFIG_CONTROL_DESIGN' ));
ENDSEC;

DATA;
#1 = CALENDAR_DATE ( 2021, 26, 11 ) ;
#2 = PERSON_AND_ORGANIZATION_ROLE ( 'creator' ) ;
#3 = EDGE_LOOP ( 'NONE', ( #208 ) ) ;
#4 = PLANE ( 'NONE',  #201 ) ;
#5 = CARTESIAN_POINT ( 'NONE',  ( 2.444036937190193601E-13, -7.347880794884121511E-15, 70.00000000000000000 ) ) ;
#6 = DIRECTION ( 'NONE',  ( -2.046934515578728890E-30, 1.000000000000000000, -5.862653461172327461E-16 ) ) ;
#7 = AXIS2_PLACEMENT_3D ( 'NONE', #122, #28, #213 ) ;
#8 = CYLINDRICAL_SURFACE ( 'NONE', #212, 1.499999999999995337 ) ;
#9 = DIRECTION ( 'NONE',  ( -3.491481338843133355E-15, 1.049697256412017316E-16, -1.000000000000000000 ) ) ;
#10 = AXIS2_PLACEMENT_3D ( 'NONE', #145, #126, #219 ) ;
#11 = CIRCLE ( 'NONE', #193, 1.943999999999998396 ) ;
#12 = MECHANICAL_CONTEXT ( 'NONE', #176, 'mechanical' ) ;
#13 = CARTESIAN_POINT ( 'NONE',  ( 3.600939696456379138E-14, 1.943999999999998618, 10.31350119616997318 ) ) ;
#14 = APPROVAL ( #152, 'UNSPECIFIED' ) ;
#15 =( NAMED_UNIT ( * ) PLANE_ANGLE_UNIT ( ) SI_UNIT ( $, .RADIAN. ) );
#16 = DATE_AND_TIME ( #146, #44 ) ;
#17 = EDGE_CURVE ( 'NONE', #92, #92, #162, .T. ) ;
#18 = DATE_AND_TIME ( #1, #97 ) ;
#19 = ORIENTED_EDGE ( 'NONE', *, *, #217, .T. ) ;
#20 = APPROVAL_STATUS ( 'not_yet_approved' ) ;
#21 = DIRECTION ( 'NONE',  ( 0.0000000000000000000, 1.000000000000000000, 0.0000000000000000000 ) ) ;
#22 = EDGE_LOOP ( 'NONE', ( #79 ) ) ;
#23 = SHAPE_DEFINITION_REPRESENTATION ( #26, #33 ) ;
#24 = EDGE_LOOP ( 'NONE', ( #224 ) ) ;
#25 = CARTESIAN_POINT ( 'NONE',  ( 8.728703347107873817E-16, 1.465663365293088521E-16, 0.2500000000000011657 ) ) ;
#26 = PRODUCT_DEFINITION_SHAPE ( 'NONE', 'NONE',  #242 ) ;
#27 = EDGE_CURVE ( 'NONE', #142, #142, #144, .T. ) ;
#28 = DIRECTION ( 'NONE',  ( 3.491481338843133355E-15, -1.049697256412017316E-16, 1.000000000000000000 ) ) ;
#29 = DIRECTION ( 'NONE',  ( 2.046934515578728890E-30, -1.000000000000000000, 5.862653461172327461E-16 ) ) ;
#30 = CC_DESIGN_PERSON_AND_ORGANIZATION_ASSIGNMENT ( #57, #2, ( #242 ) ) ;
#31 = CARTESIAN_POINT ( 'NONE',  ( -1.892735826383161356E-31, 1.799662432702592518, -5.421010862427522170E-17 ) ) ;
#32 = VERTEX_POINT ( 'NONE', #31 ) ;
#33 = ADVANCED_BREP_SHAPE_REPRESENTATION ( '321292', ( #53, #131, #179 ), #40 ) ;
#34 = CONICAL_SURFACE ( 'NONE', #129, 1.799662432702592518, 0.5235987755982969283 ) ;
#35 = ADVANCED_FACE ( 'NONE', ( #37, #58 ), #8, .T. ) ;
#36 = PERSON_AND_ORGANIZATION_ROLE ( 'creator' ) ;
#37 = FACE_OUTER_BOUND ( 'NONE', #190, .T. ) ;
#38 = PERSON_AND_ORGANIZATION ( #84, #112 ) ;
#39 = EDGE_LOOP ( 'NONE', ( #243 ) ) ;
#40 =( GEOMETRIC_REPRESENTATION_CONTEXT ( 3 ) GLOBAL_UNCERTAINTY_ASSIGNED_CONTEXT ( ( #226 ) ) GLOBAL_UNIT_ASSIGNED_CONTEXT ( ( #181, #15, #241 ) ) REPRESENTATION_CONTEXT ( 'NONE', 'WORKASPACE' ) );
#41 = COORDINATED_UNIVERSAL_TIME_OFFSET ( 1, 0, .AHEAD. ) ;
#42 = PERSON_AND_ORGANIZATION_ROLE ( 'design_owner' ) ;
#43 = DIRECTION ( 'NONE',  ( 3.664998382197393967E-31, 1.000000000000000000, 1.049697256412017316E-16 ) ) ;
#44 = LOCAL_TIME ( 14, 2, 13.00000000000000000, #189 ) ;
#45 = CC_DESIGN_PERSON_AND_ORGANIZATION_ASSIGNMENT ( #60, #42, ( #182 ) ) ;
#46 = CARTESIAN_POINT ( 'NONE',  ( 3.600939696456378507E-14, 1.943999999999998618, 10.31350119616997141 ) ) ;
#47 = PLANE ( 'NONE',  #109 ) ;
#48 = DIRECTION ( 'NONE',  ( -3.491481338843133355E-15, 1.049697256412017316E-16, -1.000000000000000000 ) ) ;
#49 = DIRECTION ( 'NONE',  ( -2.046934515578728890E-30, 1.000000000000000000, -5.862653461172327461E-16 ) ) ;
#50 = AXIS2_PLACEMENT_3D ( 'NONE', #170, #65, #21 ) ;
#51 = CC_DESIGN_PERSON_AND_ORGANIZATION_ASSIGNMENT ( #80, #36, ( #161 ) ) ;
#52 = CARTESIAN_POINT ( 'NONE',  ( 3.869445280877825814E-14, 1.499999999999991562, 11.08253175473057794 ) ) ;
#53 = MANIFOLD_SOLID_BREP ( 'Corps-Déplacer/Copier1[1]', #137 ) ;
#54 = VERTEX_POINT ( 'NONE', #127 ) ;
#55 = ADVANCED_FACE ( 'NONE', ( #119 ), #120, .T. ) ;
#56 = PERSON_AND_ORGANIZATION ( #84, #112 ) ;
#57 = PERSON_AND_ORGANIZATION ( #84, #112 ) ;
#58 = FACE_OUTER_BOUND ( 'NONE', #166, .T. ) ;
#59 = APPROVAL_STATUS ( 'not_yet_approved' ) ;
#60 = PERSON_AND_ORGANIZATION ( #84, #112 ) ;
#61 = ORIENTED_EDGE ( 'NONE', *, *, #172, .T. ) ;
#62 = ADVANCED_FACE ( 'NONE', ( #116 ), #89, .T. ) ;
#63 = APPROVAL_PERSON_ORGANIZATION ( #203, #147, #227 ) ;
#64 = APPROVAL_ROLE ( '' ) ;
#65 = DIRECTION ( 'NONE',  ( -3.491481338843133355E-15, 1.049697256412017316E-16, -1.000000000000000000 ) ) ;
#66 = CARTESIAN_POINT ( 'NONE',  ( 3.494517567251002284E-30, 5.867751685466489070E-31, 1.000869610378291248E-15 ) ) ;
#67 = AXIS2_PLACEMENT_3D ( 'NONE', #121, #192, #49 ) ;
#68 = FACE_BOUND ( 'NONE', #167, .T. ) ;
#69 = CARTESIAN_POINT ( 'NONE',  ( -1.936532366263817256E-30, 1.799662432702592518, -5.546449138134208458E-16 ) ) ;
#70 = DIRECTION ( 'NONE',  ( 0.0000000000000000000, 1.000000000000000000, 0.0000000000000000000 ) ) ;
#71 = CIRCLE ( 'NONE', #185, 1.199999999999997513 ) ;
#72 = FACE_OUTER_BOUND ( 'NONE', #3, .T. ) ;
#73 = DIRECTION ( 'NONE',  ( 1.000000000000000000, 0.0000000000000000000, 0.0000000000000000000 ) ) ;
#74 = DIRECTION ( 'NONE',  ( 2.046934515578729241E-30, -1.000000000000000000, 5.862653461172327461E-16 ) ) ;
#75 = EDGE_CURVE ( 'NONE', #124, #124, #71, .T. ) ;
#76 = COORDINATED_UNIVERSAL_TIME_OFFSET ( 1, 0, .AHEAD. ) ;
#77 = ORIENTED_EDGE ( 'NONE', *, *, #27, .F. ) ;
#78 = DATE_AND_TIME ( #202, #218 ) ;
#79 = ORIENTED_EDGE ( 'NONE', *, *, #27, .T. ) ;
#80 = PERSON_AND_ORGANIZATION ( #84, #112 ) ;
#81 = CLOSED_SHELL ( 'NONE', ( #91, #95, #220, #55 ) ) ;
#82 = EDGE_LOOP ( 'NONE', ( #169 ) ) ;
#83 = EDGE_LOOP ( 'NONE', ( #19 ) ) ;
#84 = PERSON ( 'UNSPECIFIED', 'UNSPECIFIED', 'UNSPECIFIED', ('UNSPECIFIED'), ('UNSPECIFIED'), ('UNSPECIFIED') ) ;
#85 = FACE_OUTER_BOUND ( 'NONE', #231, .T. ) ;
#86 = DIRECTION ( 'NONE',  ( -2.080479878196089717E-30, 1.000000000000000000, -5.856030252622327848E-16 ) ) ;
#87 = AXIS2_PLACEMENT_3D ( 'NONE', #157, #155, #232 ) ;
#88 = DIRECTION ( 'NONE',  ( -2.046934515578728890E-30, 1.000000000000000000, -5.862653461172327461E-16 ) ) ;
#89 = PLANE ( 'NONE',  #7 ) ;
#90 = FACE_OUTER_BOUND ( 'NONE', #151, .T. ) ;
#91 = ADVANCED_FACE ( 'NONE', ( #211 ), #47, .T. ) ;
#92 = VERTEX_POINT ( 'NONE', #13 ) ;
#93 = CC_DESIGN_SECURITY_CLASSIFICATION ( #234, ( #161 ) ) ;
#94 = DIRECTION ( 'NONE',  ( 3.491481338843133355E-15, 5.862653461172327461E-16, 1.000000000000000000 ) ) ;
#95 = ADVANCED_FACE ( 'NONE', ( #215, #178 ), #106, .T. ) ;
#96 = SECURITY_CLASSIFICATION_LEVEL ( 'unclassified' ) ;
#97 = LOCAL_TIME ( 14, 2, 13.00000000000000000, #207 ) ;
#98 = APPROVAL_ROLE ( '' ) ;
#99 = ORIENTED_EDGE ( 'NONE', *, *, #17, .T. ) ;
#100 = DIRECTION ( 'NONE',  ( -3.170255052489289379E-30, 1.000000000000000000, -8.923474670662622427E-16 ) ) ;
#101 = CONICAL_SURFACE ( 'NONE', #87, 1.943999999999999728, 0.5235987755982929315 ) ;
#102 = DIRECTION ( 'NONE',  ( 3.491481338843133355E-15, 5.862653461172327461E-16, 1.000000000000000000 ) ) ;
#103 = DIRECTION ( 'NONE',  ( -3.491481338843133355E-15, 1.049697256412017316E-16, -1.000000000000000000 ) ) ;
#104 = APPLICATION_CONTEXT ( 'configuration controlled 3d designs of mechanical parts and assemblies' ) ;
#105 = AXIS2_PLACEMENT_3D ( 'NONE', #159, #103, #210 ) ;
#106 = CYLINDRICAL_SURFACE ( 'NONE', #67, 1.943999999999995731 ) ;
#107 = APPLICATION_PROTOCOL_DEFINITION ( 'international standard', 'config_control_design', 1994, #176 ) ;
#108 = CC_DESIGN_PERSON_AND_ORGANIZATION_ASSIGNMENT ( #38, #188, ( #161 ) ) ;
#109 = AXIS2_PLACEMENT_3D ( 'NONE', #197, #102, #29 ) ;
#110 = DATE_AND_TIME ( #113, #118 ) ;
#111 = PRODUCT_RELATED_PRODUCT_CATEGORY ( 'detail', '', ( #182 ) ) ;
#112 = ORGANIZATION ( 'UNSPECIFIED', 'UNSPECIFIED', '' ) ;
#113 = CALENDAR_DATE ( 2021, 26, 11 ) ;
#114 = APPROVAL_DATE_TIME ( #16, #187 ) ;
#115 = ORIENTED_EDGE ( 'NONE', *, *, #217, .F. ) ;
#116 = FACE_OUTER_BOUND ( 'NONE', #206, .T. ) ;
#117 = AXIS2_PLACEMENT_3D ( 'NONE', #66, #233, #6 ) ;
#118 = LOCAL_TIME ( 14, 2, 13.00000000000000000, #76 ) ;
#119 = FACE_OUTER_BOUND ( 'NONE', #83, .T. ) ;
#120 = PLANE ( 'NONE',  #165 ) ;
#121 = CARTESIAN_POINT ( 'NONE',  ( 0.0000000000000000000, 0.0000000000000000000, 0.0000000000000000000 ) ) ;
#122 = CARTESIAN_POINT ( 'NONE',  ( 2.444036937190193601E-13, -7.347880794884121511E-15, 70.00000000000000000 ) ) ;
#123 = ADVANCED_FACE ( 'NONE', ( #90 ), #4, .T. ) ;
#124 = VERTEX_POINT ( 'NONE', #240 ) ;
#125 = CARTESIAN_POINT ( 'NONE',  ( 0.0000000000000000000, 0.0000000000000000000, 0.0000000000000000000 ) ) ;
#126 = DIRECTION ( 'NONE',  ( -3.491481338843133355E-15, 1.049697256412017316E-16, -1.000000000000000000 ) ) ;
#127 = CARTESIAN_POINT ( 'NONE',  ( 3.600939696456379138E-14, 1.943999999999998618, 10.31350119616997318 ) ) ;
#128 = DATE_AND_TIME ( #148, #222 ) ;
#129 = AXIS2_PLACEMENT_3D ( 'NONE', #236, #94, #74 ) ;
#130 = COORDINATED_UNIVERSAL_TIME_OFFSET ( 1, 0, .AHEAD. ) ;
#131 = MANIFOLD_SOLID_BREP ( 'Corps-Déplacer/Copier1[2]', #81 ) ;
#132 = ORIENTED_EDGE ( 'NONE', *, *, #177, .T. ) ;
#133 = DESIGN_CONTEXT ( 'detailed design', #104, 'design' ) ;
#134 = PERSON_AND_ORGANIZATION ( #84, #112 ) ;
#135 = CC_DESIGN_APPROVAL ( #14, ( #242 ) ) ;
#136 = DIRECTION ( 'NONE',  ( -3.491481338843133355E-15, -5.862653461172327461E-16, -1.000000000000000000 ) ) ;
#137 = CLOSED_SHELL ( 'NONE', ( #62, #235, #35, #191, #123 ) ) ;
#138 = FACE_OUTER_BOUND ( 'NONE', #184, .T. ) ;
#139 = DIRECTION ( 'NONE',  ( -3.491481338843133355E-15, 1.049697256412017316E-16, -1.000000000000000000 ) ) ;
#140 = DIRECTION ( 'NONE',  ( 0.0000000000000000000, 1.000000000000000000, 0.0000000000000000000 ) ) ;
#141 = AXIS2_PLACEMENT_3D ( 'NONE', #186, #136, #100 ) ;
#142 = VERTEX_POINT ( 'NONE', #52 ) ;
#143 = VERTEX_POINT ( 'NONE', #199 ) ;
#144 = CIRCLE ( 'NONE', #50, 1.499999999999992673 ) ;
#145 = CARTESIAN_POINT ( 'NONE',  ( 2.433562493173664138E-13, -7.316389877191761450E-15, 69.70000000000001705 ) ) ;
#146 = CALENDAR_DATE ( 2021, 26, 11 ) ;
#147 = APPROVAL ( #59, 'UNSPECIFIED' ) ;
#148 = CALENDAR_DATE ( 2021, 26, 11 ) ;
#149 = AXIS2_PLACEMENT_3D ( 'NONE', #237, #194, #70 ) ;
#150 = ORIENTED_EDGE ( 'NONE', *, *, #172, .F. ) ;
#151 = EDGE_LOOP ( 'NONE', ( #61 ) ) ;
#152 = APPROVAL_STATUS ( 'not_yet_approved' ) ;
#153 = EDGE_LOOP ( 'NONE', ( #99 ) ) ;
#154 = PERSON_AND_ORGANIZATION_ROLE ( 'classification_officer' ) ;
#155 = DIRECTION ( 'NONE',  ( -3.491481338843133355E-15, 1.049697256412017316E-16, -1.000000000000000000 ) ) ;
#156 = EDGE_CURVE ( 'NONE', #143, #143, #158, .T. ) ;
#157 = CARTESIAN_POINT ( 'NONE',  ( 3.600939696456379138E-14, -1.082605390962168021E-15, 10.31350119616997318 ) ) ;
#158 = CIRCLE ( 'NONE', #149, 1.499999999999997558 ) ;
#159 = CARTESIAN_POINT ( 'NONE',  ( 3.600939696456379138E-14, -1.082605390962168021E-15, 10.31350119616997318 ) ) ;
#160 = DIRECTION ( 'NONE',  ( 3.664998382197393967E-31, 1.000000000000000000, 1.049697256412017316E-16 ) ) ;
#161 = PRODUCT_DEFINITION_FORMATION_WITH_SPECIFIED_SOURCE ( 'ANY', '', #182, .NOT_KNOWN. ) ;
#162 = CIRCLE ( 'NONE', #141, 1.943999999999992623 ) ;
#163 = CONICAL_SURFACE ( 'NONE', #10, 1.499999999999997558, 0.7853981633974573828 ) ;
#164 = FACE_BOUND ( 'NONE', #24, .T. ) ;
#165 = AXIS2_PLACEMENT_3D ( 'NONE', #69, #195, #88 ) ;
#166 = EDGE_LOOP ( 'NONE', ( #77 ) ) ;
#167 = EDGE_LOOP ( 'NONE', ( #115 ) ) ;
#168 = APPLICATION_PROTOCOL_DEFINITION ( 'international standard', 'config_control_design', 1994, #104 ) ;
#169 = ORIENTED_EDGE ( 'NONE', *, *, #17, .F. ) ;
#170 = CARTESIAN_POINT ( 'NONE',  ( 3.869445280877825814E-14, -1.163330317703974832E-15, 11.08253175473057794 ) ) ;
#171 = CARTESIAN_POINT ( 'NONE',  ( 0.0000000000000000000, 0.0000000000000000000, 0.0000000000000000000 ) ) ;
#172 = EDGE_CURVE ( 'NONE', #54, #54, #205, .T. ) ;
#173 = DIRECTION ( 'NONE',  ( -3.491481338843133355E-15, -5.862653461172327461E-16, -1.000000000000000000 ) ) ;
#174 = FACE_BOUND ( 'NONE', #22, .T. ) ;
#175 = APPROVAL_PERSON_ORGANIZATION ( #56, #187, #64 ) ;
#176 = APPLICATION_CONTEXT ( 'configuration controlled 3d designs of mechanical parts and assemblies' ) ;
#177 = EDGE_CURVE ( 'NONE', #239, #239, #11, .T. ) ;
#178 = FACE_OUTER_BOUND ( 'NONE', #39, .T. ) ;
#179 = AXIS2_PLACEMENT_3D ( 'NONE', #125, #180, #73 ) ;
#180 = DIRECTION ( 'NONE',  ( 0.0000000000000000000, 0.0000000000000000000, 1.000000000000000000 ) ) ;
#181 =( LENGTH_UNIT ( ) NAMED_UNIT ( * ) SI_UNIT ( .MILLI., .METRE. ) );
#182 = PRODUCT ( '321292', '321292', '', ( #12 ) ) ;
#183 = DATE_TIME_ROLE ( 'classification_date' ) ;
#184 = EDGE_LOOP ( 'NONE', ( #132 ) ) ;
#185 = AXIS2_PLACEMENT_3D ( 'NONE', #5, #9, #140 ) ;
#186 = CARTESIAN_POINT ( 'NONE',  ( 3.600939696456379769E-14, 6.046448348453084558E-15, 10.31350119616997496 ) ) ;
#187 = APPROVAL ( #20, 'UNSPECIFIED' ) ;
#188 = PERSON_AND_ORGANIZATION_ROLE ( 'design_supplier' ) ;
#189 = COORDINATED_UNIVERSAL_TIME_OFFSET ( 1, 0, .AHEAD. ) ;
#190 = EDGE_LOOP ( 'NONE', ( #228 ) ) ;
#191 = ADVANCED_FACE ( 'NONE', ( #174, #85 ), #101, .T. ) ;
#192 = DIRECTION ( 'NONE',  ( -3.491481338843133355E-15, -5.862653461172327461E-16, -1.000000000000000000 ) ) ;
#193 = AXIS2_PLACEMENT_3D ( 'NONE', #25, #173, #86 ) ;
#194 = DIRECTION ( 'NONE',  ( -3.491481338843133355E-15, 1.049697256412017316E-16, -1.000000000000000000 ) ) ;
#195 = DIRECTION ( 'NONE',  ( -3.491481338843133355E-15, -5.862653461172327461E-16, -1.000000000000000000 ) ) ;
#196 = CC_DESIGN_APPROVAL ( #187, ( #234 ) ) ;
#197 = CARTESIAN_POINT ( 'NONE',  ( 3.600939696456378507E-14, 6.046448348453082192E-15, 10.31350119616997141 ) ) ;
#198 = CC_DESIGN_PERSON_AND_ORGANIZATION_ASSIGNMENT ( #229, #154, ( #234 ) ) ;
#199 = CARTESIAN_POINT ( 'NONE',  ( 2.433562493173664138E-13, 1.499999999999990230, 69.70000000000001705 ) ) ;
#200 = CARTESIAN_POINT ( 'NONE',  ( 8.728703347107833388E-16, 1.943999999999998618, 0.2500000000000000000 ) ) ;
#201 = AXIS2_PLACEMENT_3D ( 'NONE', #46, #139, #160 ) ;
#202 = CALENDAR_DATE ( 2021, 26, 11 ) ;
#203 = PERSON_AND_ORGANIZATION ( #84, #112 ) ;
#204 = DATE_TIME_ROLE ( 'creation_date' ) ;
#205 = CIRCLE ( 'NONE', #105, 1.943999999999999728 ) ;
#206 = EDGE_LOOP ( 'NONE', ( #225 ) ) ;
#207 = COORDINATED_UNIVERSAL_TIME_OFFSET ( 1, 0, .AHEAD. ) ;
#208 = ORIENTED_EDGE ( 'NONE', *, *, #156, .F. ) ;
#209 = CC_DESIGN_DATE_AND_TIME_ASSIGNMENT ( #128, #204, ( #242 ) ) ;
#210 = DIRECTION ( 'NONE',  ( 0.0000000000000000000, 1.000000000000000000, 0.0000000000000000000 ) ) ;
#211 = FACE_OUTER_BOUND ( 'NONE', #82, .T. ) ;
#212 = AXIS2_PLACEMENT_3D ( 'NONE', #171, #48, #43 ) ;
#213 = DIRECTION ( 'NONE',  ( -3.664998382197393967E-31, -1.000000000000000000, -1.049697256412017316E-16 ) ) ;
#214 = CC_DESIGN_DATE_AND_TIME_ASSIGNMENT ( #110, #183, ( #234 ) ) ;
#215 = FACE_OUTER_BOUND ( 'NONE', #153, .T. ) ;
#216 = CC_DESIGN_APPROVAL ( #147, ( #161 ) ) ;
#217 = EDGE_CURVE ( 'NONE', #32, #32, #230, .T. ) ;
#218 = LOCAL_TIME ( 14, 2, 13.00000000000000000, #41 ) ;
#219 = DIRECTION ( 'NONE',  ( 0.0000000000000000000, 1.000000000000000000, 0.0000000000000000000 ) ) ;
#220 = ADVANCED_FACE ( 'NONE', ( #138, #68 ), #34, .T. ) ;
#221 = APPROVAL_DATE_TIME ( #18, #14 ) ;
#222 = LOCAL_TIME ( 14, 2, 13.00000000000000000, #130 ) ;
#223 = APPROVAL_DATE_TIME ( #78, #147 ) ;
#224 = ORIENTED_EDGE ( 'NONE', *, *, #75, .T. ) ;
#225 = ORIENTED_EDGE ( 'NONE', *, *, #75, .F. ) ;
#226 = UNCERTAINTY_MEASURE_WITH_UNIT (LENGTH_MEASURE( 1.000000000000000082E-05 ), #181, 'distance_accuracy_value', 'NONE');
#227 = APPROVAL_ROLE ( '' ) ;
#228 = ORIENTED_EDGE ( 'NONE', *, *, #156, .T. ) ;
#229 = PERSON_AND_ORGANIZATION ( #84, #112 ) ;
#230 = CIRCLE ( 'NONE', #117, 1.799662432702592518 ) ;
#231 = EDGE_LOOP ( 'NONE', ( #150 ) ) ;
#232 = DIRECTION ( 'NONE',  ( 0.0000000000000000000, 1.000000000000000000, 0.0000000000000000000 ) ) ;
#233 = DIRECTION ( 'NONE',  ( -3.491481338843133355E-15, -5.862653461172327461E-16, -1.000000000000000000 ) ) ;
#234 = SECURITY_CLASSIFICATION ( '', '', #96 ) ;
#235 = ADVANCED_FACE ( 'NONE', ( #164, #72 ), #163, .T. ) ;
#236 = CARTESIAN_POINT ( 'NONE',  ( 3.494517567251002284E-30, 5.867751685466489070E-31, 1.000869610378291248E-15 ) ) ;
#237 = CARTESIAN_POINT ( 'NONE',  ( 2.433562493173664138E-13, -7.316389877191761450E-15, 69.70000000000001705 ) ) ;
#238 = APPROVAL_PERSON_ORGANIZATION ( #134, #14, #98 ) ;
#239 = VERTEX_POINT ( 'NONE', #200 ) ;
#240 = CARTESIAN_POINT ( 'NONE',  ( 2.444036937190193601E-13, 1.199999999999990186, 70.00000000000000000 ) ) ;
#241 =( NAMED_UNIT ( * ) SI_UNIT ( $, .STERADIAN. ) SOLID_ANGLE_UNIT ( ) );
#242 = PRODUCT_DEFINITION ( 'UNKNOWN', '', #161, #133 ) ;
#243 = ORIENTED_EDGE ( 'NONE', *, *, #177, .F. ) ;
ENDSEC;
END-ISO-10303-21;
