ISO-10303-21;
HEADER;
FILE_DESCRIPTION (( 'STEP AP203' ),
    '1' );
FILE_NAME ('321291.step',
    '2021-11-26T13:02:13',
    ( '' ),
    ( '' ),
    'SwSTEP 2.0',
    'SolidWorks 2019',
    '' );
FILE_SCHEMA (( 'CONFIG_CONTROL_DESIGN' ));
ENDSEC;

DATA;
#1 = APPROVAL_STATUS ( 'not_yet_approved' ) ;
#2 = ADVANCED_BREP_SHAPE_REPRESENTATION ( '321291', ( #38, #34, #234 ), #28 ) ;
#3 = CONICAL_SURFACE ( 'NONE', #177, 1.938999999999999835, 0.5235987755982932645 ) ;
#4 = CC_DESIGN_DATE_AND_TIME_ASSIGNMENT ( #180, #86, ( #136 ) ) ;
#5 = PERSON_AND_ORGANIZATION ( #122, #117 ) ;
#6 = APPROVAL_ROLE ( '' ) ;
#7 = ORIENTED_EDGE ( 'NONE', *, *, #60, .F. ) ;
#8 = AXIS2_PLACEMENT_3D ( 'NONE', #137, #154, #221 ) ;
#9 = LOCAL_TIME ( 14, 2, 13.00000000000000000, #162 ) ;
#10 = SECURITY_CLASSIFICATION_LEVEL ( 'unclassified' ) ;
#11 = DIRECTION ( 'NONE',  ( -3.491481338843133355E-15, 1.049697256412017316E-16, -1.000000000000000000 ) ) ;
#12 = DIRECTION ( 'NONE',  ( -3.491481338843133355E-15, 1.049697256412017316E-16, -1.000000000000000000 ) ) ;
#13 = CIRCLE ( 'NONE', #87, 1.199999999999997513 ) ;
#14 = CARTESIAN_POINT ( 'NONE',  ( 3.603963407992657905E-14, 6.044327197975634470E-15, 10.32216145020782072 ) ) ;
#15 = APPLICATION_CONTEXT ( 'configuration controlled 3d designs of mechanical parts and assemblies' ) ;
#16 = DIRECTION ( 'NONE',  ( 3.491481338843133355E-15, 5.855679769331588066E-16, 1.000000000000000000 ) ) ;
#17 = DIRECTION ( 'NONE',  ( -3.491481338843133355E-15, 1.049697256412017316E-16, -1.000000000000000000 ) ) ;
#18 = CARTESIAN_POINT ( 'NONE',  ( -1.892735826383168144E-31, 1.794662432702592625, -5.421010862427522170E-17 ) ) ;
#19 = AXIS2_PLACEMENT_3D ( 'NONE', #186, #56, #199 ) ;
#20 = AXIS2_PLACEMENT_3D ( 'NONE', #201, #54, #50 ) ;
#21 = APPLICATION_PROTOCOL_DEFINITION ( 'international standard', 'config_control_design', 1994, #15 ) ;
#22 =( NAMED_UNIT ( * ) SI_UNIT ( $, .STERADIAN. ) SOLID_ANGLE_UNIT ( ) );
#23 = ADVANCED_FACE ( 'NONE', ( #182, #25 ), #3, .T. ) ;
#24 = AXIS2_PLACEMENT_3D ( 'NONE', #132, #97, #202 ) ;
#25 = FACE_OUTER_BOUND ( 'NONE', #211, .T. ) ;
#26 = DATE_TIME_ROLE ( 'creation_date' ) ;
#27 = DIRECTION ( 'NONE',  ( -3.491481338843133355E-15, 1.049697256412017316E-16, -1.000000000000000000 ) ) ;
#28 =( GEOMETRIC_REPRESENTATION_CONTEXT ( 3 ) GLOBAL_UNCERTAINTY_ASSIGNED_CONTEXT ( ( #59 ) ) GLOBAL_UNIT_ASSIGNED_CONTEXT ( ( #160, #189, #22 ) ) REPRESENTATION_CONTEXT ( 'NONE', 'WORKASPACE' ) );
#29 = EDGE_LOOP ( 'NONE', ( #228 ) ) ;
#30 = CARTESIAN_POINT ( 'NONE',  ( 3.479913158170346455E-30, 5.836278387809081742E-31, 9.966867413713230850E-16 ) ) ;
#31 = VERTEX_POINT ( 'NONE', #114 ) ;
#32 = DIRECTION ( 'NONE',  ( 0.0000000000000000000, 1.000000000000000000, 0.0000000000000000000 ) ) ;
#33 = PLANE ( 'NONE',  #243 ) ;
#34 = MANIFOLD_SOLID_BREP ( 'Corps-Déplacer/Copier1[2]', #52 ) ;
#35 = AXIS2_PLACEMENT_3D ( 'NONE', #242, #16, #96 ) ;
#36 = EDGE_CURVE ( 'NONE', #51, #51, #41, .T. ) ;
#37 = CARTESIAN_POINT ( 'NONE',  ( 0.0000000000000000000, 0.0000000000000000000, 0.0000000000000000000 ) ) ;
#38 = MANIFOLD_SOLID_BREP ( 'Corps-Déplacer/Copier1[1]', #81 ) ;
#39 = PERSON_AND_ORGANIZATION ( #122, #117 ) ;
#40 = APPLICATION_CONTEXT ( 'configuration controlled 3d designs of mechanical parts and assemblies' ) ;
#41 = CIRCLE ( 'NONE', #205, 1.938999999999999835 ) ;
#42 = CARTESIAN_POINT ( 'NONE',  ( 3.603963407992657274E-14, -1.083514455452503745E-15, 10.32216145020781894 ) ) ;
#43 = DATE_AND_TIME ( #82, #169 ) ;
#44 = ORIENTED_EDGE ( 'NONE', *, *, #60, .T. ) ;
#45 = APPROVAL_STATUS ( 'not_yet_approved' ) ;
#46 = ORIENTED_EDGE ( 'NONE', *, *, #102, .F. ) ;
#47 = DATE_AND_TIME ( #127, #93 ) ;
#48 = CARTESIAN_POINT ( 'NONE',  ( 3.603963407992657274E-14, -1.083514455452503745E-15, 10.32216145020781894 ) ) ;
#49 = CC_DESIGN_PERSON_AND_ORGANIZATION_ASSIGNMENT ( #213, #84, ( #136 ) ) ;
#50 = DIRECTION ( 'NONE',  ( -2.044499664086250462E-30, 1.000000000000000000, -5.855679769331588066E-16 ) ) ;
#51 = VERTEX_POINT ( 'NONE', #112 ) ;
#52 = CLOSED_SHELL ( 'NONE', ( #83, #80, #173, #108 ) ) ;
#53 = APPROVAL_PERSON_ORGANIZATION ( #39, #157, #143 ) ;
#54 = DIRECTION ( 'NONE',  ( -3.491481338843133355E-15, -5.855679769331588066E-16, -1.000000000000000000 ) ) ;
#55 = CARTESIAN_POINT ( 'NONE',  ( 2.444036937190193601E-13, -7.347880794884121511E-15, 70.00000000000000000 ) ) ;
#56 = DIRECTION ( 'NONE',  ( -3.491481338843133355E-15, 1.049697256412017316E-16, -1.000000000000000000 ) ) ;
#57 = PRODUCT_DEFINITION_FORMATION_WITH_SPECIFIED_SOURCE ( 'ANY', '', #103, .NOT_KNOWN. ) ;
#58 = COORDINATED_UNIVERSAL_TIME_OFFSET ( 1, 0, .AHEAD. ) ;
#59 = UNCERTAINTY_MEASURE_WITH_UNIT (LENGTH_MEASURE( 1.000000000000000082E-05 ), #160, 'distance_accuracy_value', 'NONE');
#60 = EDGE_CURVE ( 'NONE', #204, #204, #190, .T. ) ;
#61 = CC_DESIGN_APPROVAL ( #192, ( #68 ) ) ;
#62 = PERSON_AND_ORGANIZATION ( #122, #117 ) ;
#63 = EDGE_LOOP ( 'NONE', ( #65 ) ) ;
#64 = APPROVAL_PERSON_ORGANIZATION ( #69, #215, #6 ) ;
#65 = ORIENTED_EDGE ( 'NONE', *, *, #118, .F. ) ;
#66 = ORIENTED_EDGE ( 'NONE', *, *, #236, .F. ) ;
#67 = CALENDAR_DATE ( 2021, 26, 11 ) ;
#68 = PRODUCT_DEFINITION ( 'UNKNOWN', '', #57, #159 ) ;
#69 = PERSON_AND_ORGANIZATION ( #122, #117 ) ;
#70 = EDGE_LOOP ( 'NONE', ( #7 ) ) ;
#71 = CARTESIAN_POINT ( 'NONE',  ( 3.603963407992657274E-14, 1.938999999999998725, 10.32216145020781894 ) ) ;
#72 = FACE_OUTER_BOUND ( 'NONE', #106, .T. ) ;
#73 = DIRECTION ( 'NONE',  ( -2.044499664086250462E-30, 1.000000000000000000, -5.855679769331588066E-16 ) ) ;
#74 = DIRECTION ( 'NONE',  ( -2.044499664086250462E-30, 1.000000000000000000, -5.855679769331587080E-16 ) ) ;
#75 = DIRECTION ( 'NONE',  ( 0.0000000000000000000, 1.000000000000000000, 0.0000000000000000000 ) ) ;
#76 = APPLICATION_PROTOCOL_DEFINITION ( 'international standard', 'config_control_design', 1994, #40 ) ;
#77 = CONICAL_SURFACE ( 'NONE', #147, 1.499999999999997558, 0.7853981633974573828 ) ;
#78 = VERTEX_POINT ( 'NONE', #18 ) ;
#79 = VERTEX_POINT ( 'NONE', #226 ) ;
#80 = ADVANCED_FACE ( 'NONE', ( #217, #161 ), #131, .T. ) ;
#81 = CLOSED_SHELL ( 'NONE', ( #113, #153, #100, #23, #227 ) ) ;
#82 = CALENDAR_DATE ( 2021, 26, 11 ) ;
#83 = ADVANCED_FACE ( 'NONE', ( #223 ), #167, .T. ) ;
#84 = PERSON_AND_ORGANIZATION_ROLE ( 'classification_officer' ) ;
#85 = EDGE_LOOP ( 'NONE', ( #194 ) ) ;
#86 = DATE_TIME_ROLE ( 'classification_date' ) ;
#87 = AXIS2_PLACEMENT_3D ( 'NONE', #55, #134, #32 ) ;
#88 = ORIENTED_EDGE ( 'NONE', *, *, #36, .F. ) ;
#89 = APPROVAL_DATE_TIME ( #230, #157 ) ;
#90 = CC_DESIGN_DATE_AND_TIME_ASSIGNMENT ( #43, #26, ( #68 ) ) ;
#91 = PRODUCT_RELATED_PRODUCT_CATEGORY ( 'detail', '', ( #103 ) ) ;
#92 = DIRECTION ( 'NONE',  ( -3.491481338843133355E-15, 1.049697256412017316E-16, -1.000000000000000000 ) ) ;
#93 = LOCAL_TIME ( 14, 2, 13.00000000000000000, #197 ) ;
#94 = FACE_OUTER_BOUND ( 'NONE', #29, .T. ) ;
#95 = FACE_BOUND ( 'NONE', #124, .T. ) ;
#96 = DIRECTION ( 'NONE',  ( 2.044499664086250462E-30, -1.000000000000000000, 5.855679769331587080E-16 ) ) ;
#97 = DIRECTION ( 'NONE',  ( 3.491481338843133355E-15, -1.049697256412017316E-16, 1.000000000000000000 ) ) ;
#98 = CC_DESIGN_PERSON_AND_ORGANIZATION_ASSIGNMENT ( #62, #176, ( #103 ) ) ;
#99 = MECHANICAL_CONTEXT ( 'NONE', #15, 'mechanical' ) ;
#100 = ADVANCED_FACE ( 'NONE', ( #183, #166 ), #220, .T. ) ;
#101 = COORDINATED_UNIVERSAL_TIME_OFFSET ( 1, 0, .AHEAD. ) ;
#102 = EDGE_CURVE ( 'NONE', #235, #235, #207, .T. ) ;
#103 = PRODUCT ( '321291', '321291', '', ( #99 ) ) ;
#104 = PERSON_AND_ORGANIZATION ( #122, #117 ) ;
#105 = DIRECTION ( 'NONE',  ( 0.0000000000000000000, 1.000000000000000000, 0.0000000000000000000 ) ) ;
#106 = EDGE_LOOP ( 'NONE', ( #231 ) ) ;
#107 = AXIS2_PLACEMENT_3D ( 'NONE', #218, #237, #73 ) ;
#108 = ADVANCED_FACE ( 'NONE', ( #94 ), #155, .T. ) ;
#109 = EDGE_LOOP ( 'NONE', ( #233 ) ) ;
#110 = ORIENTED_EDGE ( 'NONE', *, *, #36, .T. ) ;
#111 = CARTESIAN_POINT ( 'NONE',  ( 8.728703347107833388E-16, 1.938999999999998725, 0.2500000000000000000 ) ) ;
#112 = CARTESIAN_POINT ( 'NONE',  ( 3.603963407992657274E-14, 1.938999999999998725, 10.32216145020781894 ) ) ;
#113 = ADVANCED_FACE ( 'NONE', ( #72 ), #150, .T. ) ;
#114 = CARTESIAN_POINT ( 'NONE',  ( 2.433562493173664138E-13, 1.499999999999990230, 69.70000000000001705 ) ) ;
#115 = DIRECTION ( 'NONE',  ( 0.0000000000000000000, 1.000000000000000000, 0.0000000000000000000 ) ) ;
#116 = CARTESIAN_POINT ( 'NONE',  ( 3.603963407992657274E-14, 1.938999999999998725, 10.32216145020781894 ) ) ;
#117 = ORGANIZATION ( 'UNSPECIFIED', 'UNSPECIFIED', '' ) ;
#118 = EDGE_CURVE ( 'NONE', #31, #31, #239, .T. ) ;
#119 = CC_DESIGN_SECURITY_CLASSIFICATION ( #136, ( #57 ) ) ;
#120 = VERTEX_POINT ( 'NONE', #140 ) ;
#121 = APPROVAL_DATE_TIME ( #208, #192 ) ;
#122 = PERSON ( 'UNSPECIFIED', 'UNSPECIFIED', 'UNSPECIFIED', ('UNSPECIFIED'), ('UNSPECIFIED'), ('UNSPECIFIED') ) ;
#123 = PERSON_AND_ORGANIZATION_ROLE ( 'design_supplier' ) ;
#124 = EDGE_LOOP ( 'NONE', ( #128 ) ) ;
#125 = APPROVAL_DATE_TIME ( #47, #215 ) ;
#126 = EDGE_LOOP ( 'NONE', ( #110 ) ) ;
#127 = CALENDAR_DATE ( 2021, 26, 11 ) ;
#128 = ORIENTED_EDGE ( 'NONE', *, *, #133, .T. ) ;
#129 = AXIS2_PLACEMENT_3D ( 'NONE', #30, #240, #74 ) ;
#130 = EDGE_LOOP ( 'NONE', ( #46 ) ) ;
#131 = CYLINDRICAL_SURFACE ( 'NONE', #20, 1.938999999999995394 ) ;
#132 = CARTESIAN_POINT ( 'NONE',  ( 2.444036937190193601E-13, -7.347880794884121511E-15, 70.00000000000000000 ) ) ;
#133 = EDGE_CURVE ( 'NONE', #120, #120, #13, .T. ) ;
#134 = DIRECTION ( 'NONE',  ( -3.491481338843133355E-15, 1.049697256412017316E-16, -1.000000000000000000 ) ) ;
#135 = AXIS2_PLACEMENT_3D ( 'NONE', #187, #92, #149 ) ;
#136 = SECURITY_CLASSIFICATION ( '', '', #10 ) ;
#137 = CARTESIAN_POINT ( 'NONE',  ( 3.603963407992657274E-14, 6.044327197975632892E-15, 10.32216145020781894 ) ) ;
#138 = DIRECTION ( 'NONE',  ( -3.178430026838152993E-30, 1.000000000000000000, -8.946485177807188386E-16 ) ) ;
#139 = DIRECTION ( 'NONE',  ( -3.491481338843133355E-15, 1.049697256412017316E-16, -1.000000000000000000 ) ) ;
#140 = CARTESIAN_POINT ( 'NONE',  ( 2.444036937190193601E-13, 1.199999999999990186, 70.00000000000000000 ) ) ;
#141 = EDGE_LOOP ( 'NONE', ( #214 ) ) ;
#142 = AXIS2_PLACEMENT_3D ( 'NONE', #185, #17, #75 ) ;
#143 = APPROVAL_ROLE ( '' ) ;
#144 = EDGE_LOOP ( 'NONE', ( #44 ) ) ;
#145 = CALENDAR_DATE ( 2021, 26, 11 ) ;
#146 = DIRECTION ( 'NONE',  ( 0.0000000000000000000, 1.000000000000000000, 0.0000000000000000000 ) ) ;
#147 = AXIS2_PLACEMENT_3D ( 'NONE', #151, #139, #115 ) ;
#148 = DIRECTION ( 'NONE',  ( -2.085844705112531245E-30, 1.000000000000000000, -5.871130897935948643E-16 ) ) ;
#149 = DIRECTION ( 'NONE',  ( 3.664998382197393967E-31, 1.000000000000000000, 1.049697256412017316E-16 ) ) ;
#150 = PLANE ( 'NONE',  #24 ) ;
#151 = CARTESIAN_POINT ( 'NONE',  ( 2.433562493173664138E-13, -7.316389877191761450E-15, 69.70000000000001705 ) ) ;
#152 = CC_DESIGN_APPROVAL ( #157, ( #136 ) ) ;
#153 = ADVANCED_FACE ( 'NONE', ( #95, #238 ), #77, .T. ) ;
#154 = DIRECTION ( 'NONE',  ( 3.491481338843133355E-15, 5.855679769331588066E-16, 1.000000000000000000 ) ) ;
#155 = PLANE ( 'NONE',  #107 ) ;
#156 = PERSON_AND_ORGANIZATION ( #122, #117 ) ;
#157 = APPROVAL ( #209, 'UNSPECIFIED' ) ;
#158 = CALENDAR_DATE ( 2021, 26, 11 ) ;
#159 = DESIGN_CONTEXT ( 'detailed design', #40, 'design' ) ;
#160 =( LENGTH_UNIT ( ) NAMED_UNIT ( * ) SI_UNIT ( .MILLI., .METRE. ) );
#161 = FACE_OUTER_BOUND ( 'NONE', #70, .T. ) ;
#162 = COORDINATED_UNIVERSAL_TIME_OFFSET ( 1, 0, .AHEAD. ) ;
#163 = LOCAL_TIME ( 14, 2, 13.00000000000000000, #193 ) ;
#164 = APPROVAL_PERSON_ORGANIZATION ( #156, #192, #224 ) ;
#165 = DIRECTION ( 'NONE',  ( 3.664998382197393967E-31, 1.000000000000000000, 1.049697256412017316E-16 ) ) ;
#166 = FACE_OUTER_BOUND ( 'NONE', #195, .T. ) ;
#167 = PLANE ( 'NONE',  #8 ) ;
#168 = DIRECTION ( 'NONE',  ( -3.491481338843133355E-15, -5.855679769331588066E-16, -1.000000000000000000 ) ) ;
#169 = LOCAL_TIME ( 14, 2, 13.00000000000000000, #101 ) ;
#170 = CC_DESIGN_PERSON_AND_ORGANIZATION_ASSIGNMENT ( #225, #191, ( #68 ) ) ;
#171 = FACE_OUTER_BOUND ( 'NONE', #144, .T. ) ;
#172 = PRODUCT_DEFINITION_SHAPE ( 'NONE', 'NONE',  #68 ) ;
#173 = ADVANCED_FACE ( 'NONE', ( #171, #219 ), #181, .T. ) ;
#174 = LOCAL_TIME ( 14, 2, 13.00000000000000000, #58 ) ;
#175 = DIRECTION ( 'NONE',  ( 0.0000000000000000000, 0.0000000000000000000, 1.000000000000000000 ) ) ;
#176 = PERSON_AND_ORGANIZATION_ROLE ( 'design_owner' ) ;
#177 = AXIS2_PLACEMENT_3D ( 'NONE', #42, #11, #105 ) ;
#178 = EDGE_LOOP ( 'NONE', ( #232 ) ) ;
#179 = PERSON_AND_ORGANIZATION_ROLE ( 'creator' ) ;
#180 = DATE_AND_TIME ( #67, #163 ) ;
#181 = CONICAL_SURFACE ( 'NONE', #35, 1.794662432702592625, 0.5235987755982969283 ) ;
#182 = FACE_BOUND ( 'NONE', #141, .T. ) ;
#183 = FACE_OUTER_BOUND ( 'NONE', #178, .T. ) ;
#184 = AXIS2_PLACEMENT_3D ( 'NONE', #216, #198, #148 ) ;
#185 = CARTESIAN_POINT ( 'NONE',  ( 3.869445280877825814E-14, -1.163330317703974832E-15, 11.08253175473057794 ) ) ;
#186 = CARTESIAN_POINT ( 'NONE',  ( 2.433562493173664138E-13, -7.316389877191761450E-15, 69.70000000000001705 ) ) ;
#187 = CARTESIAN_POINT ( 'NONE',  ( 0.0000000000000000000, 0.0000000000000000000, 0.0000000000000000000 ) ) ;
#188 = CIRCLE ( 'NONE', #142, 1.499999999999992673 ) ;
#189 =( NAMED_UNIT ( * ) PLANE_ANGLE_UNIT ( ) SI_UNIT ( $, .RADIAN. ) );
#190 = CIRCLE ( 'NONE', #184, 1.938999999999998503 ) ;
#191 = PERSON_AND_ORGANIZATION_ROLE ( 'creator' ) ;
#192 = APPROVAL ( #1, 'UNSPECIFIED' ) ;
#193 = COORDINATED_UNIVERSAL_TIME_OFFSET ( 1, 0, .AHEAD. ) ;
#194 = ORIENTED_EDGE ( 'NONE', *, *, #212, .F. ) ;
#195 = EDGE_LOOP ( 'NONE', ( #66 ) ) ;
#196 = AXIS2_PLACEMENT_3D ( 'NONE', #14, #168, #138 ) ;
#197 = COORDINATED_UNIVERSAL_TIME_OFFSET ( 1, 0, .AHEAD. ) ;
#198 = DIRECTION ( 'NONE',  ( -3.491481338843133355E-15, -5.855679769331588066E-16, -1.000000000000000000 ) ) ;
#199 = DIRECTION ( 'NONE',  ( 0.0000000000000000000, 1.000000000000000000, 0.0000000000000000000 ) ) ;
#200 = CC_DESIGN_APPROVAL ( #215, ( #57 ) ) ;
#201 = CARTESIAN_POINT ( 'NONE',  ( 0.0000000000000000000, 0.0000000000000000000, 0.0000000000000000000 ) ) ;
#202 = DIRECTION ( 'NONE',  ( -3.664998382197393967E-31, -1.000000000000000000, -1.049697256412017316E-16 ) ) ;
#203 = FACE_OUTER_BOUND ( 'NONE', #126, .T. ) ;
#204 = VERTEX_POINT ( 'NONE', #111 ) ;
#205 = AXIS2_PLACEMENT_3D ( 'NONE', #48, #27, #146 ) ;
#206 = DIRECTION ( 'NONE',  ( 1.000000000000000000, 0.0000000000000000000, 0.0000000000000000000 ) ) ;
#207 = CIRCLE ( 'NONE', #196, 1.938999999999992507 ) ;
#208 = DATE_AND_TIME ( #158, #174 ) ;
#209 = APPROVAL_STATUS ( 'not_yet_approved' ) ;
#210 = SHAPE_DEFINITION_REPRESENTATION ( #172, #2 ) ;
#211 = EDGE_LOOP ( 'NONE', ( #88 ) ) ;
#212 = EDGE_CURVE ( 'NONE', #78, #78, #229, .T. ) ;
#213 = PERSON_AND_ORGANIZATION ( #122, #117 ) ;
#214 = ORIENTED_EDGE ( 'NONE', *, *, #236, .T. ) ;
#215 = APPROVAL ( #45, 'UNSPECIFIED' ) ;
#216 = CARTESIAN_POINT ( 'NONE',  ( 8.728703347107873817E-16, 1.463919942332903919E-16, 0.2500000000000011657 ) ) ;
#217 = FACE_OUTER_BOUND ( 'NONE', #109, .T. ) ;
#218 = CARTESIAN_POINT ( 'NONE',  ( -1.929230161723489341E-30, 1.794662432702592625, -5.525534793099367642E-16 ) ) ;
#219 = FACE_BOUND ( 'NONE', #85, .T. ) ;
#220 = CYLINDRICAL_SURFACE ( 'NONE', #135, 1.499999999999995337 ) ;
#221 = DIRECTION ( 'NONE',  ( 2.044499664086250462E-30, -1.000000000000000000, 5.855679769331588066E-16 ) ) ;
#222 = CC_DESIGN_PERSON_AND_ORGANIZATION_ASSIGNMENT ( #104, #179, ( #57 ) ) ;
#223 = FACE_OUTER_BOUND ( 'NONE', #130, .T. ) ;
#224 = APPROVAL_ROLE ( '' ) ;
#225 = PERSON_AND_ORGANIZATION ( #122, #117 ) ;
#226 = CARTESIAN_POINT ( 'NONE',  ( 3.869445280877825814E-14, 1.499999999999991562, 11.08253175473057794 ) ) ;
#227 = ADVANCED_FACE ( 'NONE', ( #203 ), #33, .T. ) ;
#228 = ORIENTED_EDGE ( 'NONE', *, *, #212, .T. ) ;
#229 = CIRCLE ( 'NONE', #129, 1.794662432702592625 ) ;
#230 = DATE_AND_TIME ( #145, #9 ) ;
#231 = ORIENTED_EDGE ( 'NONE', *, *, #133, .F. ) ;
#232 = ORIENTED_EDGE ( 'NONE', *, *, #118, .T. ) ;
#233 = ORIENTED_EDGE ( 'NONE', *, *, #102, .T. ) ;
#234 = AXIS2_PLACEMENT_3D ( 'NONE', #37, #175, #206 ) ;
#235 = VERTEX_POINT ( 'NONE', #71 ) ;
#236 = EDGE_CURVE ( 'NONE', #79, #79, #188, .T. ) ;
#237 = DIRECTION ( 'NONE',  ( -3.491481338843133355E-15, -5.855679769331588066E-16, -1.000000000000000000 ) ) ;
#238 = FACE_OUTER_BOUND ( 'NONE', #63, .T. ) ;
#239 = CIRCLE ( 'NONE', #19, 1.499999999999997558 ) ;
#240 = DIRECTION ( 'NONE',  ( -3.491481338843133355E-15, -5.855679769331588066E-16, -1.000000000000000000 ) ) ;
#241 = CC_DESIGN_PERSON_AND_ORGANIZATION_ASSIGNMENT ( #5, #123, ( #57 ) ) ;
#242 = CARTESIAN_POINT ( 'NONE',  ( 3.479913158170346455E-30, 5.836278387809081742E-31, 9.966867413713230850E-16 ) ) ;
#243 = AXIS2_PLACEMENT_3D ( 'NONE', #116, #12, #165 ) ;
ENDSEC;
END-ISO-10303-21;
