ISO-10303-21;
HEADER;
FILE_DESCRIPTION (( 'STEP AP203' ),
    '1' );
FILE_NAME ('321290.step',
    '2021-11-26T13:02:12',
    ( '' ),
    ( '' ),
    'SwSTEP 2.0',
    'SolidWorks 2019',
    '' );
FILE_SCHEMA (( 'CONFIG_CONTROL_DESIGN' ));
ENDSEC;

DATA;
#1 = CYLINDRICAL_SURFACE ( 'NONE', #186, 1.499999999999995337 ) ;
#2 = DIRECTION ( 'NONE',  ( -3.664998382197393967E-31, -1.000000000000000000, -1.049697256412017316E-16 ) ) ;
#3 = DIRECTION ( 'NONE',  ( 0.0000000000000000000, 1.000000000000000000, 0.0000000000000000000 ) ) ;
#4 = APPLICATION_PROTOCOL_DEFINITION ( 'international standard', 'config_control_design', 1994, #217 ) ;
#5 = FACE_OUTER_BOUND ( 'NONE', #148, .T. ) ;
#6 = VERTEX_POINT ( 'NONE', #20 ) ;
#7 = VERTEX_POINT ( 'NONE', #118 ) ;
#8 = ORIENTED_EDGE ( 'NONE', *, *, #167, .T. ) ;
#9 = EDGE_LOOP ( 'NONE', ( #144 ) ) ;
#10 = EDGE_LOOP ( 'NONE', ( #168 ) ) ;
#11 = AXIS2_PLACEMENT_3D ( 'NONE', #55, #116, #52 ) ;
#12 = DIRECTION ( 'NONE',  ( -3.491481338843133355E-15, 1.049697256412017316E-16, -1.000000000000000000 ) ) ;
#13 = DIRECTION ( 'NONE',  ( -3.491481338843133355E-15, 1.049697256412017316E-16, -1.000000000000000000 ) ) ;
#14 = DIRECTION ( 'NONE',  ( -2.042068894830996010E-30, 1.000000000000000000, -5.848717769482951883E-16 ) ) ;
#15 = CARTESIAN_POINT ( 'NONE',  ( 2.433562493173664138E-13, -7.316389877191761450E-15, 69.70000000000001705 ) ) ;
#16 = APPROVAL ( #162, 'UNSPECIFIED' ) ;
#17 = DIRECTION ( 'NONE',  ( 3.491481338843133355E-15, 5.848717769482951883E-16, 1.000000000000000000 ) ) ;
#18 =( NAMED_UNIT ( * ) SI_UNIT ( $, .STERADIAN. ) SOLID_ANGLE_UNIT ( ) );
#19 = DIRECTION ( 'NONE',  ( 2.042068894830996010E-30, -1.000000000000000000, 5.848717769482951883E-16 ) ) ;
#20 = CARTESIAN_POINT ( 'NONE',  ( 2.444036937190193601E-13, 1.199999999999990186, 70.00000000000000000 ) ) ;
#21 = AXIS2_PLACEMENT_3D ( 'NONE', #74, #17, #225 ) ;
#22 = PERSON_AND_ORGANIZATION ( #224, #221 ) ;
#23 = CARTESIAN_POINT ( 'NONE',  ( 3.869445280877825814E-14, 1.499999999999991562, 11.08253175473057794 ) ) ;
#24 = EDGE_LOOP ( 'NONE', ( #61 ) ) ;
#25 = CC_DESIGN_APPROVAL ( #172, ( #65 ) ) ;
#26 = CC_DESIGN_DATE_AND_TIME_ASSIGNMENT ( #142, #64, ( #109 ) ) ;
#27 = AXIS2_PLACEMENT_3D ( 'NONE', #69, #222, #113 ) ;
#28 = CARTESIAN_POINT ( 'NONE',  ( 2.444036937190193601E-13, -7.347880794884121511E-15, 70.00000000000000000 ) ) ;
#29 = EDGE_CURVE ( 'NONE', #214, #214, #115, .T. ) ;
#30 = DIRECTION ( 'NONE',  ( -3.491481338843133355E-15, 1.049697256412017316E-16, -1.000000000000000000 ) ) ;
#31 = CONICAL_SURFACE ( 'NONE', #27, 1.499999999999997558, 0.7853981633974573828 ) ;
#32 = FACE_BOUND ( 'NONE', #166, .T. ) ;
#33 = DIRECTION ( 'NONE',  ( 3.664998382197393967E-31, 1.000000000000000000, 1.049697256412017316E-16 ) ) ;
#34 = EDGE_CURVE ( 'NONE', #153, #153, #49, .T. ) ;
#35 = AXIS2_PLACEMENT_3D ( 'NONE', #46, #170, #171 ) ;
#36 = MECHANICAL_CONTEXT ( 'NONE', #210, 'mechanical' ) ;
#37 = CARTESIAN_POINT ( 'NONE',  ( 3.606987119528935409E-14, 1.933999999999998609, 10.33082170424566471 ) ) ;
#38 = CONICAL_SURFACE ( 'NONE', #21, 1.789662432702592509, 0.5235987755982969283 ) ;
#39 = APPROVAL_DATE_TIME ( #216, #172 ) ;
#40 = ADVANCED_FACE ( 'NONE', ( #32, #189 ), #31, .T. ) ;
#41 = EDGE_LOOP ( 'NONE', ( #92 ) ) ;
#42 = SHAPE_DEFINITION_REPRESENTATION ( #199, #76 ) ;
#43 = ORIENTED_EDGE ( 'NONE', *, *, #29, .F. ) ;
#44 = CIRCLE ( 'NONE', #235, 1.499999999999997558 ) ;
#45 = DIRECTION ( 'NONE',  ( 3.664998382197393967E-31, 1.000000000000000000, 1.049697256412017316E-16 ) ) ;
#46 = CARTESIAN_POINT ( 'NONE',  ( 8.728703347107873817E-16, 1.462179442370744627E-16, 0.2500000000000011657 ) ) ;
#47 = DIRECTION ( 'NONE',  ( 3.491481338843133355E-15, -1.049697256412017316E-16, 1.000000000000000000 ) ) ;
#48 = CC_DESIGN_PERSON_AND_ORGANIZATION_ASSIGNMENT ( #159, #103, ( #109 ) ) ;
#49 = CIRCLE ( 'NONE', #197, 1.789662432702592509 ) ;
#50 = FACE_BOUND ( 'NONE', #183, .T. ) ;
#51 = FACE_OUTER_BOUND ( 'NONE', #220, .T. ) ;
#52 = DIRECTION ( 'NONE',  ( -2.042068894830996010E-30, 1.000000000000000000, -5.848717769482951883E-16 ) ) ;
#53 = AXIS2_PLACEMENT_3D ( 'NONE', #212, #12, #33 ) ;
#54 = CARTESIAN_POINT ( 'NONE',  ( 8.728703347107833388E-16, 1.933999999999998609, 0.2500000000000000000 ) ) ;
#55 = CARTESIAN_POINT ( 'NONE',  ( -1.921943784353925439E-30, 1.789662432702592509, -5.504665778883246435E-16 ) ) ;
#56 = PERSON_AND_ORGANIZATION ( #224, #221 ) ;
#57 = CONICAL_SURFACE ( 'NONE', #226, 1.933999999999999719, 0.5235987755982937086 ) ;
#58 = PERSON_AND_ORGANIZATION ( #224, #221 ) ;
#59 = SECURITY_CLASSIFICATION_LEVEL ( 'unclassified' ) ;
#60 = CALENDAR_DATE ( 2021, 26, 11 ) ;
#61 = ORIENTED_EDGE ( 'NONE', *, *, #213, .F. ) ;
#62 = CALENDAR_DATE ( 2021, 26, 11 ) ;
#63 = EDGE_LOOP ( 'NONE', ( #43 ) ) ;
#64 = DATE_TIME_ROLE ( 'classification_date' ) ;
#65 = PRODUCT_DEFINITION ( 'UNKNOWN', '', #94, #85 ) ;
#66 = ADVANCED_FACE ( 'NONE', ( #208, #195 ), #1, .T. ) ;
#67 = DIRECTION ( 'NONE',  ( -3.186647270961312489E-30, 1.000000000000000000, -8.969614663789109328E-16 ) ) ;
#68 = AXIS2_PLACEMENT_3D ( 'NONE', #137, #176, #102 ) ;
#69 = CARTESIAN_POINT ( 'NONE',  ( 2.433562493173664138E-13, -7.316389877191761450E-15, 69.70000000000001705 ) ) ;
#70 = CARTESIAN_POINT ( 'NONE',  ( 3.606987119528936040E-14, 6.042206047498177282E-15, 10.33082170424566648 ) ) ;
#71 = CYLINDRICAL_SURFACE ( 'NONE', #88, 1.933999999999995723 ) ;
#72 = EDGE_CURVE ( 'NONE', #121, #121, #177, .T. ) ;
#73 = AXIS2_PLACEMENT_3D ( 'NONE', #93, #13, #95 ) ;
#74 = CARTESIAN_POINT ( 'NONE',  ( 3.465340403431218651E-30, 5.804928060011031657E-31, 9.925129385280988437E-16 ) ) ;
#75 = COORDINATED_UNIVERSAL_TIME_OFFSET ( 1, 0, .AHEAD. ) ;
#76 = ADVANCED_BREP_SHAPE_REPRESENTATION ( '321290', ( #77, #161, #68 ), #82 ) ;
#77 = MANIFOLD_SOLID_BREP ( 'Corps-Déplacer/Copier1[1]', #230 ) ;
#78 = APPROVAL_PERSON_ORGANIZATION ( #204, #16, #87 ) ;
#79 = VERTEX_POINT ( 'NONE', #135 ) ;
#80 =( NAMED_UNIT ( * ) PLANE_ANGLE_UNIT ( ) SI_UNIT ( $, .RADIAN. ) );
#81 = ADVANCED_FACE ( 'NONE', ( #207, #146 ), #38, .T. ) ;
#82 =( GEOMETRIC_REPRESENTATION_CONTEXT ( 3 ) GLOBAL_UNCERTAINTY_ASSIGNED_CONTEXT ( ( #124 ) ) GLOBAL_UNIT_ASSIGNED_CONTEXT ( ( #179, #80, #18 ) ) REPRESENTATION_CONTEXT ( 'NONE', 'WORKASPACE' ) );
#83 = ORIENTED_EDGE ( 'NONE', *, *, #34, .T. ) ;
#84 = PERSON_AND_ORGANIZATION ( #224, #221 ) ;
#85 = DESIGN_CONTEXT ( 'detailed design', #217, 'design' ) ;
#86 = ORIENTED_EDGE ( 'NONE', *, *, #188, .T. ) ;
#87 = APPROVAL_ROLE ( '' ) ;
#88 = AXIS2_PLACEMENT_3D ( 'NONE', #129, #191, #14 ) ;
#89 = EDGE_LOOP ( 'NONE', ( #187 ) ) ;
#90 = COORDINATED_UNIVERSAL_TIME_OFFSET ( 1, 0, .AHEAD. ) ;
#91 = EDGE_LOOP ( 'NONE', ( #206 ) ) ;
#92 = ORIENTED_EDGE ( 'NONE', *, *, #34, .F. ) ;
#93 = CARTESIAN_POINT ( 'NONE',  ( 3.869445280877825814E-14, -1.163330317703974832E-15, 11.08253175473057794 ) ) ;
#94 = PRODUCT_DEFINITION_FORMATION_WITH_SPECIFIED_SOURCE ( 'ANY', '', #231, .NOT_KNOWN. ) ;
#95 = DIRECTION ( 'NONE',  ( 0.0000000000000000000, 1.000000000000000000, 0.0000000000000000000 ) ) ;
#96 = FACE_OUTER_BOUND ( 'NONE', #24, .T. ) ;
#97 = CARTESIAN_POINT ( 'NONE',  ( 2.444036937190193601E-13, -7.347880794884121511E-15, 70.00000000000000000 ) ) ;
#98 = DIRECTION ( 'NONE',  ( 3.491481338843133355E-15, 5.848717769482951883E-16, 1.000000000000000000 ) ) ;
#99 = PERSON_AND_ORGANIZATION_ROLE ( 'creator' ) ;
#100 = DATE_AND_TIME ( #196, #169 ) ;
#101 = CLOSED_SHELL ( 'NONE', ( #215, #120, #81, #233 ) ) ;
#102 = DIRECTION ( 'NONE',  ( 1.000000000000000000, 0.0000000000000000000, 0.0000000000000000000 ) ) ;
#103 = PERSON_AND_ORGANIZATION_ROLE ( 'classification_officer' ) ;
#104 = AXIS2_PLACEMENT_3D ( 'NONE', #228, #174, #3 ) ;
#105 = ADVANCED_FACE ( 'NONE', ( #227 ), #128, .T. ) ;
#106 = CALENDAR_DATE ( 2021, 26, 11 ) ;
#107 = APPROVAL_DATE_TIME ( #165, #151 ) ;
#108 = CC_DESIGN_DATE_AND_TIME_ASSIGNMENT ( #100, #122, ( #65 ) ) ;
#109 = SECURITY_CLASSIFICATION ( '', '', #59 ) ;
#110 = FACE_OUTER_BOUND ( 'NONE', #10, .T. ) ;
#111 = DIRECTION ( 'NONE',  ( -3.491481338843133355E-15, 1.049697256412017316E-16, -1.000000000000000000 ) ) ;
#112 = DIRECTION ( 'NONE',  ( -3.491481338843133355E-15, 1.049697256412017316E-16, -1.000000000000000000 ) ) ;
#113 = DIRECTION ( 'NONE',  ( 0.0000000000000000000, 1.000000000000000000, 0.0000000000000000000 ) ) ;
#114 = CARTESIAN_POINT ( 'NONE',  ( 3.606987119528936040E-14, 6.042206047498178071E-15, 10.33082170424566648 ) ) ;
#115 = CIRCLE ( 'NONE', #35, 1.933999999999998387 ) ;
#116 = DIRECTION ( 'NONE',  ( -3.491481338843133355E-15, -5.848717769482951883E-16, -1.000000000000000000 ) ) ;
#117 = PERSON_AND_ORGANIZATION ( #224, #221 ) ;
#118 = CARTESIAN_POINT ( 'NONE',  ( 3.606987119528935409E-14, 1.933999999999998609, 10.33082170424566471 ) ) ;
#119 = CIRCLE ( 'NONE', #104, 1.933999999999999719 ) ;
#120 = ADVANCED_FACE ( 'NONE', ( #130, #194 ), #71, .T. ) ;
#121 = VERTEX_POINT ( 'NONE', #37 ) ;
#122 = DATE_TIME_ROLE ( 'creation_date' ) ;
#123 = CC_DESIGN_SECURITY_CLASSIFICATION ( #109, ( #94 ) ) ;
#124 = UNCERTAINTY_MEASURE_WITH_UNIT (LENGTH_MEASURE( 1.000000000000000082E-05 ), #179, 'distance_accuracy_value', 'NONE');
#125 = PERSON_AND_ORGANIZATION_ROLE ( 'creator' ) ;
#126 = ORIENTED_EDGE ( 'NONE', *, *, #29, .T. ) ;
#127 = CC_DESIGN_APPROVAL ( #151, ( #109 ) ) ;
#128 = PLANE ( 'NONE',  #190 ) ;
#129 = CARTESIAN_POINT ( 'NONE',  ( 0.0000000000000000000, 0.0000000000000000000, 0.0000000000000000000 ) ) ;
#130 = FACE_OUTER_BOUND ( 'NONE', #91, .T. ) ;
#131 = CARTESIAN_POINT ( 'NONE',  ( 3.606987119528935409E-14, -1.084423519942839469E-15, 10.33082170424566471 ) ) ;
#132 = CC_DESIGN_PERSON_AND_ORGANIZATION_ASSIGNMENT ( #117, #99, ( #65 ) ) ;
#133 = PLANE ( 'NONE',  #158 ) ;
#134 = EDGE_CURVE ( 'NONE', #79, #79, #44, .T. ) ;
#135 = CARTESIAN_POINT ( 'NONE',  ( 2.433562493173664138E-13, 1.499999999999990230, 69.70000000000001705 ) ) ;
#136 = APPROVAL_PERSON_ORGANIZATION ( #56, #172, #157 ) ;
#137 = CARTESIAN_POINT ( 'NONE',  ( 0.0000000000000000000, 0.0000000000000000000, 0.0000000000000000000 ) ) ;
#138 = PRODUCT_RELATED_PRODUCT_CATEGORY ( 'detail', '', ( #231 ) ) ;
#139 = APPLICATION_PROTOCOL_DEFINITION ( 'international standard', 'config_control_design', 1994, #210 ) ;
#140 = CALENDAR_DATE ( 2021, 26, 11 ) ;
#141 = PERSON_AND_ORGANIZATION_ROLE ( 'design_supplier' ) ;
#142 = DATE_AND_TIME ( #106, #155 ) ;
#143 = CC_DESIGN_PERSON_AND_ORGANIZATION_ASSIGNMENT ( #58, #141, ( #94 ) ) ;
#144 = ORIENTED_EDGE ( 'NONE', *, *, #188, .F. ) ;
#145 = ADVANCED_FACE ( 'NONE', ( #110 ), #173, .T. ) ;
#146 = FACE_BOUND ( 'NONE', #41, .T. ) ;
#147 = CARTESIAN_POINT ( 'NONE',  ( 0.0000000000000000000, 0.0000000000000000000, 0.0000000000000000000 ) ) ;
#148 = EDGE_LOOP ( 'NONE', ( #83 ) ) ;
#149 = CC_DESIGN_PERSON_AND_ORGANIZATION_ASSIGNMENT ( #22, #180, ( #231 ) ) ;
#150 = DIRECTION ( 'NONE',  ( 0.0000000000000000000, 1.000000000000000000, 0.0000000000000000000 ) ) ;
#151 = APPROVAL ( #238, 'UNSPECIFIED' ) ;
#152 = DIRECTION ( 'NONE',  ( 0.0000000000000000000, 1.000000000000000000, 0.0000000000000000000 ) ) ;
#153 = VERTEX_POINT ( 'NONE', #198 ) ;
#154 = CIRCLE ( 'NONE', #73, 1.499999999999992673 ) ;
#155 = LOCAL_TIME ( 14, 2, 12.00000000000000000, #202 ) ;
#156 = VERTEX_POINT ( 'NONE', #23 ) ;
#157 = APPROVAL_ROLE ( '' ) ;
#158 = AXIS2_PLACEMENT_3D ( 'NONE', #114, #98, #19 ) ;
#159 = PERSON_AND_ORGANIZATION ( #224, #221 ) ;
#160 = EDGE_LOOP ( 'NONE', ( #126 ) ) ;
#161 = MANIFOLD_SOLID_BREP ( 'Corps-Déplacer/Copier1[2]', #101 ) ;
#162 = APPROVAL_STATUS ( 'not_yet_approved' ) ;
#163 = ORIENTED_EDGE ( 'NONE', *, *, #134, .F. ) ;
#164 = AXIS2_PLACEMENT_3D ( 'NONE', #97, #112, #192 ) ;
#165 = DATE_AND_TIME ( #60, #205 ) ;
#166 = EDGE_LOOP ( 'NONE', ( #8 ) ) ;
#167 = EDGE_CURVE ( 'NONE', #6, #6, #175, .T. ) ;
#168 = ORIENTED_EDGE ( 'NONE', *, *, #213, .T. ) ;
#169 = LOCAL_TIME ( 14, 2, 12.00000000000000000, #75 ) ;
#170 = DIRECTION ( 'NONE',  ( -3.491481338843133355E-15, -5.848717769482951883E-16, -1.000000000000000000 ) ) ;
#171 = DIRECTION ( 'NONE',  ( -2.091237271568354993E-30, 1.000000000000000000, -5.886309623111585186E-16 ) ) ;
#172 = APPROVAL ( #229, 'UNSPECIFIED' ) ;
#173 = PLANE ( 'NONE',  #53 ) ;
#174 = DIRECTION ( 'NONE',  ( -3.491481338843133355E-15, 1.049697256412017316E-16, -1.000000000000000000 ) ) ;
#175 = CIRCLE ( 'NONE', #164, 1.199999999999997513 ) ;
#176 = DIRECTION ( 'NONE',  ( 0.0000000000000000000, 0.0000000000000000000, 1.000000000000000000 ) ) ;
#177 = CIRCLE ( 'NONE', #182, 1.933999999999992614 ) ;
#178 = CC_DESIGN_APPROVAL ( #16, ( #94 ) ) ;
#179 =( LENGTH_UNIT ( ) NAMED_UNIT ( * ) SI_UNIT ( .MILLI., .METRE. ) );
#180 = PERSON_AND_ORGANIZATION_ROLE ( 'design_owner' ) ;
#181 = APPROVAL_ROLE ( '' ) ;
#182 = AXIS2_PLACEMENT_3D ( 'NONE', #70, #223, #67 ) ;
#183 = EDGE_LOOP ( 'NONE', ( #86 ) ) ;
#184 = PERSON_AND_ORGANIZATION ( #224, #221 ) ;
#185 = ORIENTED_EDGE ( 'NONE', *, *, #167, .F. ) ;
#186 = AXIS2_PLACEMENT_3D ( 'NONE', #147, #30, #45 ) ;
#187 = ORIENTED_EDGE ( 'NONE', *, *, #134, .T. ) ;
#188 = EDGE_CURVE ( 'NONE', #156, #156, #154, .T. ) ;
#189 = FACE_OUTER_BOUND ( 'NONE', #239, .T. ) ;
#190 = AXIS2_PLACEMENT_3D ( 'NONE', #28, #47, #2 ) ;
#191 = DIRECTION ( 'NONE',  ( -3.491481338843133355E-15, -5.848717769482951883E-16, -1.000000000000000000 ) ) ;
#192 = DIRECTION ( 'NONE',  ( 0.0000000000000000000, 1.000000000000000000, 0.0000000000000000000 ) ) ;
#193 = ADVANCED_FACE ( 'NONE', ( #50, #96 ), #57, .T. ) ;
#194 = FACE_OUTER_BOUND ( 'NONE', #63, .T. ) ;
#195 = FACE_OUTER_BOUND ( 'NONE', #9, .T. ) ;
#196 = CALENDAR_DATE ( 2021, 26, 11 ) ;
#197 = AXIS2_PLACEMENT_3D ( 'NONE', #209, #242, #243 ) ;
#198 = CARTESIAN_POINT ( 'NONE',  ( -1.892735826383161356E-31, 1.789662432702592509, -5.421010862427522170E-17 ) ) ;
#199 = PRODUCT_DEFINITION_SHAPE ( 'NONE', 'NONE',  #65 ) ;
#200 = LOCAL_TIME ( 14, 2, 12.00000000000000000, #234 ) ;
#201 = LOCAL_TIME ( 14, 2, 12.00000000000000000, #90 ) ;
#202 = COORDINATED_UNIVERSAL_TIME_OFFSET ( 1, 0, .AHEAD. ) ;
#203 = ORIENTED_EDGE ( 'NONE', *, *, #72, .F. ) ;
#204 = PERSON_AND_ORGANIZATION ( #224, #221 ) ;
#205 = LOCAL_TIME ( 14, 2, 12.00000000000000000, #236 ) ;
#206 = ORIENTED_EDGE ( 'NONE', *, *, #72, .T. ) ;
#207 = FACE_OUTER_BOUND ( 'NONE', #160, .T. ) ;
#208 = FACE_OUTER_BOUND ( 'NONE', #89, .T. ) ;
#209 = CARTESIAN_POINT ( 'NONE',  ( 3.465340403431218651E-30, 5.804928060011031657E-31, 9.925129385280988437E-16 ) ) ;
#210 = APPLICATION_CONTEXT ( 'configuration controlled 3d designs of mechanical parts and assemblies' ) ;
#211 = DIRECTION ( 'NONE',  ( -3.491481338843133355E-15, 1.049697256412017316E-16, -1.000000000000000000 ) ) ;
#212 = CARTESIAN_POINT ( 'NONE',  ( 3.606987119528936040E-14, 1.933999999999998609, 10.33082170424566648 ) ) ;
#213 = EDGE_CURVE ( 'NONE', #7, #7, #119, .T. ) ;
#214 = VERTEX_POINT ( 'NONE', #54 ) ;
#215 = ADVANCED_FACE ( 'NONE', ( #51 ), #133, .T. ) ;
#216 = DATE_AND_TIME ( #140, #200 ) ;
#217 = APPLICATION_CONTEXT ( 'configuration controlled 3d designs of mechanical parts and assemblies' ) ;
#218 = DATE_AND_TIME ( #62, #201 ) ;
#219 = APPROVAL_PERSON_ORGANIZATION ( #84, #151, #181 ) ;
#220 = EDGE_LOOP ( 'NONE', ( #203 ) ) ;
#221 = ORGANIZATION ( 'UNSPECIFIED', 'UNSPECIFIED', '' ) ;
#222 = DIRECTION ( 'NONE',  ( -3.491481338843133355E-15, 1.049697256412017316E-16, -1.000000000000000000 ) ) ;
#223 = DIRECTION ( 'NONE',  ( -3.491481338843133355E-15, -5.848717769482951883E-16, -1.000000000000000000 ) ) ;
#224 = PERSON ( 'UNSPECIFIED', 'UNSPECIFIED', 'UNSPECIFIED', ('UNSPECIFIED'), ('UNSPECIFIED'), ('UNSPECIFIED') ) ;
#225 = DIRECTION ( 'NONE',  ( 2.042068894830995660E-30, -1.000000000000000000, 5.848717769482951883E-16 ) ) ;
#226 = AXIS2_PLACEMENT_3D ( 'NONE', #131, #211, #152 ) ;
#227 = FACE_OUTER_BOUND ( 'NONE', #241, .T. ) ;
#228 = CARTESIAN_POINT ( 'NONE',  ( 3.606987119528935409E-14, -1.084423519942839469E-15, 10.33082170424566471 ) ) ;
#229 = APPROVAL_STATUS ( 'not_yet_approved' ) ;
#230 = CLOSED_SHELL ( 'NONE', ( #105, #40, #66, #193, #145 ) ) ;
#231 = PRODUCT ( '321290', '321290', '', ( #36 ) ) ;
#232 = PLANE ( 'NONE',  #11 ) ;
#233 = ADVANCED_FACE ( 'NONE', ( #5 ), #232, .T. ) ;
#234 = COORDINATED_UNIVERSAL_TIME_OFFSET ( 1, 0, .AHEAD. ) ;
#235 = AXIS2_PLACEMENT_3D ( 'NONE', #15, #111, #150 ) ;
#236 = COORDINATED_UNIVERSAL_TIME_OFFSET ( 1, 0, .AHEAD. ) ;
#237 = APPROVAL_DATE_TIME ( #218, #16 ) ;
#238 = APPROVAL_STATUS ( 'not_yet_approved' ) ;
#239 = EDGE_LOOP ( 'NONE', ( #163 ) ) ;
#240 = CC_DESIGN_PERSON_AND_ORGANIZATION_ASSIGNMENT ( #184, #125, ( #94 ) ) ;
#241 = EDGE_LOOP ( 'NONE', ( #185 ) ) ;
#242 = DIRECTION ( 'NONE',  ( -3.491481338843133355E-15, -5.848717769482951883E-16, -1.000000000000000000 ) ) ;
#243 = DIRECTION ( 'NONE',  ( -2.042068894830996010E-30, 1.000000000000000000, -5.848717769482951883E-16 ) ) ;
ENDSEC;
END-ISO-10303-21;
