ISO-10303-21;
HEADER;
FILE_DESCRIPTION (( 'STEP AP203' ),
    '1' );
FILE_NAME ('321289.step',
    '2021-11-26T13:02:12',
    ( '' ),
    ( '' ),
    'SwSTEP 2.0',
    'SolidWorks 2019',
    '' );
FILE_SCHEMA (( 'CONFIG_CONTROL_DESIGN' ));
ENDSEC;

DATA;
#1 = ORIENTED_EDGE ( 'NONE', *, *, #6, .F. ) ;
#2 = COORDINATED_UNIVERSAL_TIME_OFFSET ( 1, 0, .AHEAD. ) ;
#3 = APPROVAL_ROLE ( '' ) ;
#4 = DIRECTION ( 'NONE',  ( -3.491481338843133355E-15, 1.049697256412017316E-16, -1.000000000000000000 ) ) ;
#5 = AXIS2_PLACEMENT_3D ( 'NONE', #7, #108, #124 ) ;
#6 = EDGE_CURVE ( 'NONE', #63, #63, #188, .T. ) ;
#7 = CARTESIAN_POINT ( 'NONE',  ( 3.610010831065212282E-14, -1.085332584433174996E-15, 10.33948195828350691 ) ) ;
#8 = AXIS2_PLACEMENT_3D ( 'NONE', #232, #227, #48 ) ;
#9 = VERTEX_POINT ( 'NONE', #60 ) ;
#10 = DIRECTION ( 'NONE',  ( 0.0000000000000000000, 1.000000000000000000, 0.0000000000000000000 ) ) ;
#11 = DIRECTION ( 'NONE',  ( -3.491481338843133355E-15, -5.841767432247124653E-16, -1.000000000000000000 ) ) ;
#12 = DIRECTION ( 'NONE',  ( 1.000000000000000000, 0.0000000000000000000, 0.0000000000000000000 ) ) ;
#13 = SECURITY_CLASSIFICATION_LEVEL ( 'unclassified' ) ;
#14 = CIRCLE ( 'NONE', #231, 1.499999999999997558 ) ;
#15 = APPROVAL_PERSON_ORGANIZATION ( #114, #169, #238 ) ;
#16 = ORIENTED_EDGE ( 'NONE', *, *, #99, .T. ) ;
#17 = DATE_TIME_ROLE ( 'classification_date' ) ;
#18 = DIRECTION ( 'NONE',  ( 3.664998382197393967E-31, 1.000000000000000000, 1.049697256412017316E-16 ) ) ;
#19 = PERSON_AND_ORGANIZATION ( #84, #61 ) ;
#20 = FACE_OUTER_BOUND ( 'NONE', #131, .T. ) ;
#21 = LOCAL_TIME ( 14, 2, 12.00000000000000000, #91 ) ;
#22 = ORIENTED_EDGE ( 'NONE', *, *, #104, .T. ) ;
#23 = DIRECTION ( 'NONE',  ( 0.0000000000000000000, 1.000000000000000000, 0.0000000000000000000 ) ) ;
#24 = ADVANCED_FACE ( 'NONE', ( #20 ), #98, .T. ) ;
#25 = DIRECTION ( 'NONE',  ( -3.491481338843133355E-15, 1.049697256412017316E-16, -1.000000000000000000 ) ) ;
#26 = AXIS2_PLACEMENT_3D ( 'NONE', #213, #11, #176 ) ;
#27 = DIRECTION ( 'NONE',  ( 3.491481338843133355E-15, 5.841767432247124653E-16, 1.000000000000000000 ) ) ;
#28 = DIRECTION ( 'NONE',  ( 2.039642197555240423E-30, -1.000000000000000000, 5.841767432247124653E-16 ) ) ;
#29 = APPROVAL_ROLE ( '' ) ;
#30 = CALENDAR_DATE ( 2021, 26, 11 ) ;
#31 = ORIENTED_EDGE ( 'NONE', *, *, #104, .F. ) ;
#32 = PRODUCT ( '321289', '321289', '', ( #71 ) ) ;
#33 = PERSON_AND_ORGANIZATION_ROLE ( 'design_owner' ) ;
#34 = ORIENTED_EDGE ( 'NONE', *, *, #6, .T. ) ;
#35 = CC_DESIGN_DATE_AND_TIME_ASSIGNMENT ( #199, #220, ( #82 ) ) ;
#36 = APPLICATION_CONTEXT ( 'configuration controlled 3d designs of mechanical parts and assemblies' ) ;
#37 = EDGE_LOOP ( 'NONE', ( #75 ) ) ;
#38 = AXIS2_PLACEMENT_3D ( 'NONE', #141, #4, #87 ) ;
#39 = ORIENTED_EDGE ( 'NONE', *, *, #166, .F. ) ;
#40 = FACE_OUTER_BOUND ( 'NONE', #183, .T. ) ;
#41 = VERTEX_POINT ( 'NONE', #83 ) ;
#42 = APPROVAL_DATE_TIME ( #171, #112 ) ;
#43 =( GEOMETRIC_REPRESENTATION_CONTEXT ( 3 ) GLOBAL_UNCERTAINTY_ASSIGNED_CONTEXT ( ( #136 ) ) GLOBAL_UNIT_ASSIGNED_CONTEXT ( ( #113, #148, #195 ) ) REPRESENTATION_CONTEXT ( 'NONE', 'WORKASPACE' ) );
#44 = DIRECTION ( 'NONE',  ( 0.0000000000000000000, 1.000000000000000000, 0.0000000000000000000 ) ) ;
#45 = PRODUCT_RELATED_PRODUCT_CATEGORY ( 'detail', '', ( #32 ) ) ;
#46 = CARTESIAN_POINT ( 'NONE',  ( 3.610010831065212282E-14, -1.085332584433174996E-15, 10.33948195828350691 ) ) ;
#47 = CC_DESIGN_DATE_AND_TIME_ASSIGNMENT ( #116, #17, ( #97 ) ) ;
#48 = DIRECTION ( 'NONE',  ( -3.664998382197393967E-31, -1.000000000000000000, -1.049697256412017316E-16 ) ) ;
#49 = VERTEX_POINT ( 'NONE', #180 ) ;
#50 = APPROVAL_DATE_TIME ( #163, #64 ) ;
#51 = EDGE_LOOP ( 'NONE', ( #205 ) ) ;
#52 = CALENDAR_DATE ( 2021, 26, 11 ) ;
#53 = CIRCLE ( 'NONE', #110, 1.928999999999999826 ) ;
#54 = EDGE_LOOP ( 'NONE', ( #39 ) ) ;
#55 = CARTESIAN_POINT ( 'NONE',  ( 3.610010831065211651E-14, 1.928999999999998716, 10.33948195828350514 ) ) ;
#56 = ORIENTED_EDGE ( 'NONE', *, *, #235, .F. ) ;
#57 = CIRCLE ( 'NONE', #38, 1.499999999999992673 ) ;
#58 = ADVANCED_FACE ( 'NONE', ( #154, #225 ), #95, .T. ) ;
#59 = CARTESIAN_POINT ( 'NONE',  ( 0.0000000000000000000, 0.0000000000000000000, 0.0000000000000000000 ) ) ;
#60 = CARTESIAN_POINT ( 'NONE',  ( 8.728703347107835360E-16, 1.928999999999998716, 0.2500000000000000000 ) ) ;
#61 = ORGANIZATION ( 'UNSPECIFIED', 'UNSPECIFIED', '' ) ;
#62 = CONICAL_SURFACE ( 'NONE', #86, 1.784662432702592616, 0.5235987755982969283 ) ;
#63 = VERTEX_POINT ( 'NONE', #194 ) ;
#64 = APPROVAL ( #67, 'UNSPECIFIED' ) ;
#65 = DIRECTION ( 'NONE',  ( -3.491481338843133355E-15, 1.049697256412017316E-16, -1.000000000000000000 ) ) ;
#66 = APPLICATION_CONTEXT ( 'configuration controlled 3d designs of mechanical parts and assemblies' ) ;
#67 = APPROVAL_STATUS ( 'not_yet_approved' ) ;
#68 = PERSON_AND_ORGANIZATION_ROLE ( 'design_supplier' ) ;
#69 = APPLICATION_PROTOCOL_DEFINITION ( 'international standard', 'config_control_design', 1994, #66 ) ;
#70 = PERSON_AND_ORGANIZATION_ROLE ( 'classification_officer' ) ;
#71 = MECHANICAL_CONTEXT ( 'NONE', #66, 'mechanical' ) ;
#72 = CLOSED_SHELL ( 'NONE', ( #190, #147, #80, #105, #24 ) ) ;
#73 = DIRECTION ( 'NONE',  ( -3.491481338843133355E-15, -5.841767432247124653E-16, -1.000000000000000000 ) ) ;
#74 = EDGE_LOOP ( 'NONE', ( #1 ) ) ;
#75 = ORIENTED_EDGE ( 'NONE', *, *, #92, .F. ) ;
#76 = EDGE_CURVE ( 'NONE', #9, #9, #211, .T. ) ;
#77 = AXIS2_PLACEMENT_3D ( 'NONE', #59, #168, #93 ) ;
#78 = PLANE ( 'NONE',  #156 ) ;
#79 = CARTESIAN_POINT ( 'NONE',  ( 2.444036937190193601E-13, -7.347880794884121511E-15, 70.00000000000000000 ) ) ;
#80 = ADVANCED_FACE ( 'NONE', ( #234, #187 ), #208, .T. ) ;
#81 = AXIS2_PLACEMENT_3D ( 'NONE', #125, #138, #10 ) ;
#82 = PRODUCT_DEFINITION ( 'UNKNOWN', '', #233, #142 ) ;
#83 = CARTESIAN_POINT ( 'NONE',  ( 3.610010831065212282E-14, 1.928999999999998716, 10.33948195828350691 ) ) ;
#84 = PERSON ( 'UNSPECIFIED', 'UNSPECIFIED', 'UNSPECIFIED', ('UNSPECIFIED'), ('UNSPECIFIED'), ('UNSPECIFIED') ) ;
#85 = CARTESIAN_POINT ( 'NONE',  ( -1.914673194385056704E-30, 1.784662432702592616, -5.483841981579841304E-16 ) ) ;
#86 = AXIS2_PLACEMENT_3D ( 'NONE', #186, #27, #172 ) ;
#87 = DIRECTION ( 'NONE',  ( 0.0000000000000000000, 1.000000000000000000, 0.0000000000000000000 ) ) ;
#88 = DIRECTION ( 'NONE',  ( 0.0000000000000000000, 0.0000000000000000000, 1.000000000000000000 ) ) ;
#89 = CONICAL_SURFACE ( 'NONE', #5, 1.928999999999999826, 0.5235987755982930425 ) ;
#90 = LOCAL_TIME ( 14, 2, 12.00000000000000000, #201 ) ;
#91 = COORDINATED_UNIVERSAL_TIME_OFFSET ( 1, 0, .AHEAD. ) ;
#92 = EDGE_CURVE ( 'NONE', #41, #41, #102, .T. ) ;
#93 = DIRECTION ( 'NONE',  ( -2.039642197555240423E-30, 1.000000000000000000, -5.841767432247125640E-16 ) ) ;
#94 = CARTESIAN_POINT ( 'NONE',  ( 0.0000000000000000000, 0.0000000000000000000, 0.0000000000000000000 ) ) ;
#95 = CYLINDRICAL_SURFACE ( 'NONE', #77, 1.928999999999995385 ) ;
#96 = AXIS2_PLACEMENT_3D ( 'NONE', #243, #73, #222 ) ;
#97 = SECURITY_CLASSIFICATION ( '', '', #13 ) ;
#98 = PLANE ( 'NONE',  #165 ) ;
#99 = EDGE_CURVE ( 'NONE', #160, #160, #57, .T. ) ;
#100 = FACE_OUTER_BOUND ( 'NONE', #151, .T. ) ;
#101 = APPROVAL_STATUS ( 'not_yet_approved' ) ;
#102 = CIRCLE ( 'NONE', #26, 1.928999999999992498 ) ;
#103 = DIRECTION ( 'NONE',  ( 3.491481338843133355E-15, 5.841767432247124653E-16, 1.000000000000000000 ) ) ;
#104 = EDGE_CURVE ( 'NONE', #212, #212, #14, .T. ) ;
#105 = ADVANCED_FACE ( 'NONE', ( #159, #100 ), #89, .T. ) ;
#106 = ADVANCED_BREP_SHAPE_REPRESENTATION ( '321289', ( #240, #164, #197 ), #43 ) ;
#107 = CARTESIAN_POINT ( 'NONE',  ( 2.433562493173664138E-13, -7.316389877191761450E-15, 69.70000000000001705 ) ) ;
#108 = DIRECTION ( 'NONE',  ( -3.491481338843133355E-15, 1.049697256412017316E-16, -1.000000000000000000 ) ) ;
#109 = FACE_OUTER_BOUND ( 'NONE', #135, .T. ) ;
#110 = AXIS2_PLACEMENT_3D ( 'NONE', #46, #174, #23 ) ;
#111 = DATE_AND_TIME ( #237, #90 ) ;
#112 = APPROVAL ( #101, 'UNSPECIFIED' ) ;
#113 =( LENGTH_UNIT ( ) NAMED_UNIT ( * ) SI_UNIT ( .MILLI., .METRE. ) );
#114 = PERSON_AND_ORGANIZATION ( #84, #61 ) ;
#115 = ORIENTED_EDGE ( 'NONE', *, *, #76, .T. ) ;
#116 = DATE_AND_TIME ( #30, #21 ) ;
#117 = EDGE_LOOP ( 'NONE', ( #120 ) ) ;
#118 = EDGE_LOOP ( 'NONE', ( #16 ) ) ;
#119 = LOCAL_TIME ( 14, 2, 12.00000000000000000, #215 ) ;
#120 = ORIENTED_EDGE ( 'NONE', *, *, #99, .F. ) ;
#121 = ADVANCED_FACE ( 'NONE', ( #123 ), #193, .T. ) ;
#122 = FACE_BOUND ( 'NONE', #74, .T. ) ;
#123 = FACE_OUTER_BOUND ( 'NONE', #37, .T. ) ;
#124 = DIRECTION ( 'NONE',  ( 0.0000000000000000000, 1.000000000000000000, 0.0000000000000000000 ) ) ;
#125 = CARTESIAN_POINT ( 'NONE',  ( 2.433562493173664138E-13, -7.316389877191761450E-15, 69.70000000000001705 ) ) ;
#126 = ADVANCED_FACE ( 'NONE', ( #109 ), #78, .T. ) ;
#127 = PERSON_AND_ORGANIZATION ( #84, #61 ) ;
#128 = CC_DESIGN_SECURITY_CLASSIFICATION ( #97, ( #233 ) ) ;
#129 = PERSON_AND_ORGANIZATION_ROLE ( 'creator' ) ;
#130 = CARTESIAN_POINT ( 'NONE',  ( 2.444036937190193601E-13, 1.199999999999990186, 70.00000000000000000 ) ) ;
#131 = EDGE_LOOP ( 'NONE', ( #241 ) ) ;
#132 = CIRCLE ( 'NONE', #216, 1.199999999999997513 ) ;
#133 = VERTEX_POINT ( 'NONE', #130 ) ;
#134 = CARTESIAN_POINT ( 'NONE',  ( 3.450799223493481180E-30, 5.773700204196791436E-31, 9.883481790674178174E-16 ) ) ;
#135 = EDGE_LOOP ( 'NONE', ( #34 ) ) ;
#136 = UNCERTAINTY_MEASURE_WITH_UNIT (LENGTH_MEASURE( 1.000000000000000082E-05 ), #113, 'distance_accuracy_value', 'NONE');
#137 = CARTESIAN_POINT ( 'NONE',  ( 3.610010831065211651E-14, 6.040084897020731138E-15, 10.33948195828350514 ) ) ;
#138 = DIRECTION ( 'NONE',  ( -3.491481338843133355E-15, 1.049697256412017316E-16, -1.000000000000000000 ) ) ;
#139 = DIRECTION ( 'NONE',  ( -3.491481338843133355E-15, 1.049697256412017316E-16, -1.000000000000000000 ) ) ;
#140 = DIRECTION ( 'NONE',  ( 3.664998382197393967E-31, 1.000000000000000000, 1.049697256412017316E-16 ) ) ;
#141 = CARTESIAN_POINT ( 'NONE',  ( 3.869445280877825814E-14, -1.163330317703974832E-15, 11.08253175473057794 ) ) ;
#142 = DESIGN_CONTEXT ( 'detailed design', #36, 'design' ) ;
#143 = APPROVAL_STATUS ( 'not_yet_approved' ) ;
#144 = CC_DESIGN_APPROVAL ( #64, ( #82 ) ) ;
#145 = LOCAL_TIME ( 14, 2, 12.00000000000000000, #198 ) ;
#146 = APPLICATION_PROTOCOL_DEFINITION ( 'international standard', 'config_control_design', 1994, #36 ) ;
#147 = ADVANCED_FACE ( 'NONE', ( #206, #162 ), #184, .T. ) ;
#148 =( NAMED_UNIT ( * ) PLANE_ANGLE_UNIT ( ) SI_UNIT ( $, .RADIAN. ) );
#149 = EDGE_LOOP ( 'NONE', ( #223 ) ) ;
#150 = CC_DESIGN_APPROVAL ( #169, ( #233 ) ) ;
#151 = EDGE_LOOP ( 'NONE', ( #56 ) ) ;
#152 = CC_DESIGN_PERSON_AND_ORGANIZATION_ASSIGNMENT ( #19, #68, ( #233 ) ) ;
#153 = ORIENTED_EDGE ( 'NONE', *, *, #166, .T. ) ;
#154 = FACE_OUTER_BOUND ( 'NONE', #149, .T. ) ;
#155 = CALENDAR_DATE ( 2021, 26, 11 ) ;
#156 = AXIS2_PLACEMENT_3D ( 'NONE', #85, #158, #175 ) ;
#157 = CC_DESIGN_APPROVAL ( #112, ( #97 ) ) ;
#158 = DIRECTION ( 'NONE',  ( -3.491481338843133355E-15, -5.841767432247124653E-16, -1.000000000000000000 ) ) ;
#159 = FACE_BOUND ( 'NONE', #118, .T. ) ;
#160 = VERTEX_POINT ( 'NONE', #230 ) ;
#161 = DIRECTION ( 'NONE',  ( 0.0000000000000000000, 1.000000000000000000, 0.0000000000000000000 ) ) ;
#162 = FACE_OUTER_BOUND ( 'NONE', #200, .T. ) ;
#163 = DATE_AND_TIME ( #52, #119 ) ;
#164 = MANIFOLD_SOLID_BREP ( 'Corps-Déplacer/Copier1[2]', #202 ) ;
#165 = AXIS2_PLACEMENT_3D ( 'NONE', #55, #181, #18 ) ;
#166 = EDGE_CURVE ( 'NONE', #133, #133, #132, .T. ) ;
#167 = PERSON_AND_ORGANIZATION ( #84, #61 ) ;
#168 = DIRECTION ( 'NONE',  ( -3.491481338843133355E-15, -5.841767432247124653E-16, -1.000000000000000000 ) ) ;
#169 = APPROVAL ( #143, 'UNSPECIFIED' ) ;
#170 = EDGE_LOOP ( 'NONE', ( #153 ) ) ;
#171 = DATE_AND_TIME ( #155, #228 ) ;
#172 = DIRECTION ( 'NONE',  ( 2.039642197555240423E-30, -1.000000000000000000, 5.841767432247123667E-16 ) ) ;
#173 = CARTESIAN_POINT ( 'NONE',  ( 0.0000000000000000000, 0.0000000000000000000, 0.0000000000000000000 ) ) ;
#174 = DIRECTION ( 'NONE',  ( -3.491481338843133355E-15, 1.049697256412017316E-16, -1.000000000000000000 ) ) ;
#175 = DIRECTION ( 'NONE',  ( -2.039642197555240423E-30, 1.000000000000000000, -5.841767432247124653E-16 ) ) ;
#176 = DIRECTION ( 'NONE',  ( -3.194907113550637120E-30, 1.000000000000000000, -8.992864053793747677E-16 ) ) ;
#177 = AXIS2_PLACEMENT_3D ( 'NONE', #134, #185, #203 ) ;
#178 = CALENDAR_DATE ( 2021, 26, 11 ) ;
#179 = CARTESIAN_POINT ( 'NONE',  ( 2.433562493173664138E-13, 1.499999999999990230, 69.70000000000001705 ) ) ;
#180 = CARTESIAN_POINT ( 'NONE',  ( 3.610010831065212282E-14, 1.928999999999998716, 10.33948195828350691 ) ) ;
#181 = DIRECTION ( 'NONE',  ( -3.491481338843133355E-15, 1.049697256412017316E-16, -1.000000000000000000 ) ) ;
#182 = PERSON_AND_ORGANIZATION ( #84, #61 ) ;
#183 = EDGE_LOOP ( 'NONE', ( #115 ) ) ;
#184 = CONICAL_SURFACE ( 'NONE', #81, 1.499999999999997558, 0.7853981633974573828 ) ;
#185 = DIRECTION ( 'NONE',  ( -3.491481338843133355E-15, -5.841767432247124653E-16, -1.000000000000000000 ) ) ;
#186 = CARTESIAN_POINT ( 'NONE',  ( 3.450799223493481180E-30, 5.773700204196791436E-31, 9.883481790674178174E-16 ) ) ;
#187 = FACE_OUTER_BOUND ( 'NONE', #117, .T. ) ;
#188 = CIRCLE ( 'NONE', #177, 1.784662432702592616 ) ;
#189 = APPROVAL_PERSON_ORGANIZATION ( #207, #112, #3 ) ;
#190 = ADVANCED_FACE ( 'NONE', ( #192 ), #229, .T. ) ;
#191 = AXIS2_PLACEMENT_3D ( 'NONE', #173, #65, #140 ) ;
#192 = FACE_OUTER_BOUND ( 'NONE', #54, .T. ) ;
#193 = PLANE ( 'NONE',  #226 ) ;
#194 = CARTESIAN_POINT ( 'NONE',  ( -1.892735826383161356E-31, 1.784662432702592616, -5.421010862427522170E-17 ) ) ;
#195 =( NAMED_UNIT ( * ) SI_UNIT ( $, .STERADIAN. ) SOLID_ANGLE_UNIT ( ) );
#196 = APPROVAL_PERSON_ORGANIZATION ( #167, #64, #29 ) ;
#197 = AXIS2_PLACEMENT_3D ( 'NONE', #94, #88, #12 ) ;
#198 = COORDINATED_UNIVERSAL_TIME_OFFSET ( 1, 0, .AHEAD. ) ;
#199 = DATE_AND_TIME ( #178, #145 ) ;
#200 = EDGE_LOOP ( 'NONE', ( #31 ) ) ;
#201 = COORDINATED_UNIVERSAL_TIME_OFFSET ( 1, 0, .AHEAD. ) ;
#202 = CLOSED_SHELL ( 'NONE', ( #121, #58, #224, #126 ) ) ;
#203 = DIRECTION ( 'NONE',  ( -2.039642197555240073E-30, 1.000000000000000000, -5.841767432247123667E-16 ) ) ;
#204 = PRODUCT_DEFINITION_SHAPE ( 'NONE', 'NONE',  #82 ) ;
#205 = ORIENTED_EDGE ( 'NONE', *, *, #76, .F. ) ;
#206 = FACE_BOUND ( 'NONE', #170, .T. ) ;
#207 = PERSON_AND_ORGANIZATION ( #84, #61 ) ;
#208 = CYLINDRICAL_SURFACE ( 'NONE', #191, 1.499999999999995337 ) ;
#209 = CC_DESIGN_PERSON_AND_ORGANIZATION_ASSIGNMENT ( #218, #129, ( #82 ) ) ;
#210 = CC_DESIGN_PERSON_AND_ORGANIZATION_ASSIGNMENT ( #127, #33, ( #32 ) ) ;
#211 = CIRCLE ( 'NONE', #96, 1.928999999999998494 ) ;
#212 = VERTEX_POINT ( 'NONE', #179 ) ;
#213 = CARTESIAN_POINT ( 'NONE',  ( 3.610010831065212913E-14, 6.040084897020732715E-15, 10.33948195828350869 ) ) ;
#214 = PERSON_AND_ORGANIZATION ( #84, #61 ) ;
#215 = COORDINATED_UNIVERSAL_TIME_OFFSET ( 1, 0, .AHEAD. ) ;
#216 = AXIS2_PLACEMENT_3D ( 'NONE', #79, #25, #161 ) ;
#217 = APPROVAL_DATE_TIME ( #111, #169 ) ;
#218 = PERSON_AND_ORGANIZATION ( #84, #61 ) ;
#219 = CC_DESIGN_PERSON_AND_ORGANIZATION_ASSIGNMENT ( #214, #70, ( #97 ) ) ;
#220 = DATE_TIME_ROLE ( 'creation_date' ) ;
#221 = EDGE_LOOP ( 'NONE', ( #22 ) ) ;
#222 = DIRECTION ( 'NONE',  ( -1.996816945969141806E-30, 1.000000000000000000, -5.901567035302128116E-16 ) ) ;
#223 = ORIENTED_EDGE ( 'NONE', *, *, #92, .T. ) ;
#224 = ADVANCED_FACE ( 'NONE', ( #40, #122 ), #62, .T. ) ;
#225 = FACE_OUTER_BOUND ( 'NONE', #51, .T. ) ;
#226 = AXIS2_PLACEMENT_3D ( 'NONE', #137, #103, #28 ) ;
#227 = DIRECTION ( 'NONE',  ( 3.491481338843133355E-15, -1.049697256412017316E-16, 1.000000000000000000 ) ) ;
#228 = LOCAL_TIME ( 14, 2, 12.00000000000000000, #2 ) ;
#229 = PLANE ( 'NONE',  #8 ) ;
#230 = CARTESIAN_POINT ( 'NONE',  ( 3.869445280877825814E-14, 1.499999999999991562, 11.08253175473057794 ) ) ;
#231 = AXIS2_PLACEMENT_3D ( 'NONE', #107, #139, #44 ) ;
#232 = CARTESIAN_POINT ( 'NONE',  ( 2.444036937190193601E-13, -7.347880794884121511E-15, 70.00000000000000000 ) ) ;
#233 = PRODUCT_DEFINITION_FORMATION_WITH_SPECIFIED_SOURCE ( 'ANY', '', #32, .NOT_KNOWN. ) ;
#234 = FACE_OUTER_BOUND ( 'NONE', #221, .T. ) ;
#235 = EDGE_CURVE ( 'NONE', #49, #49, #53, .T. ) ;
#236 = PERSON_AND_ORGANIZATION_ROLE ( 'creator' ) ;
#237 = CALENDAR_DATE ( 2021, 26, 11 ) ;
#238 = APPROVAL_ROLE ( '' ) ;
#239 = CC_DESIGN_PERSON_AND_ORGANIZATION_ASSIGNMENT ( #182, #236, ( #233 ) ) ;
#240 = MANIFOLD_SOLID_BREP ( 'Corps-Déplacer/Copier1[1]', #72 ) ;
#241 = ORIENTED_EDGE ( 'NONE', *, *, #235, .T. ) ;
#242 = SHAPE_DEFINITION_REPRESENTATION ( #204, #106 ) ;
#243 = CARTESIAN_POINT ( 'NONE',  ( 8.728703347107873817E-16, 1.460441858061787819E-16, 0.2500000000000011657 ) ) ;
ENDSEC;
END-ISO-10303-21;
