ISO-10303-21;
HEADER;
FILE_DESCRIPTION (( 'STEP AP203' ),
    '1' );
FILE_NAME ('321288.step',
    '2021-11-26T13:02:11',
    ( '' ),
    ( '' ),
    'SwSTEP 2.0',
    'SolidWorks 2019',
    '' );
FILE_SCHEMA (( 'CONFIG_CONTROL_DESIGN' ));
ENDSEC;

DATA;
#1 = FACE_OUTER_BOUND ( 'NONE', #207, .T. ) ;
#2 = FACE_OUTER_BOUND ( 'NONE', #230, .T. ) ;
#3 = CC_DESIGN_APPROVAL ( #242, ( #174 ) ) ;
#4 = ORIENTED_EDGE ( 'NONE', *, *, #101, .F. ) ;
#5 = SECURITY_CLASSIFICATION ( '', '', #222 ) ;
#6 = CC_DESIGN_PERSON_AND_ORGANIZATION_ASSIGNMENT ( #74, #89, ( #181 ) ) ;
#7 = CARTESIAN_POINT ( 'NONE',  ( 3.613034542601490418E-14, -1.086241648923510720E-15, 10.34814221232135267 ) ) ;
#8 =( LENGTH_UNIT ( ) NAMED_UNIT ( * ) SI_UNIT ( .MILLI., .METRE. ) );
#9 = MECHANICAL_CONTEXT ( 'NONE', #48, 'mechanical' ) ;
#10 = AXIS2_PLACEMENT_3D ( 'NONE', #235, #61, #140 ) ;
#11 = CALENDAR_DATE ( 2021, 26, 11 ) ;
#12 = EDGE_LOOP ( 'NONE', ( #4 ) ) ;
#13 = COORDINATED_UNIVERSAL_TIME_OFFSET ( 1, 0, .AHEAD. ) ;
#14 = EDGE_LOOP ( 'NONE', ( #38 ) ) ;
#15 = FACE_BOUND ( 'NONE', #110, .T. ) ;
#16 = AXIS2_PLACEMENT_3D ( 'NONE', #77, #79, #60 ) ;
#17 = CARTESIAN_POINT ( 'NONE',  ( 0.0000000000000000000, 0.0000000000000000000, 0.0000000000000000000 ) ) ;
#18 = CARTESIAN_POINT ( 'NONE',  ( 3.613034542601490418E-14, -1.086241648923510720E-15, 10.34814221232135267 ) ) ;
#19 = DIRECTION ( 'NONE',  ( -2.037219562035582693E-30, 1.000000000000000000, -5.834828728343124897E-16 ) ) ;
#20 = ADVANCED_FACE ( 'NONE', ( #210, #15 ), #154, .T. ) ;
#21 = CONICAL_SURFACE ( 'NONE', #103, 1.499999999999997558, 0.7853981633974573828 ) ;
#22 = CARTESIAN_POINT ( 'NONE',  ( 3.613034542601490418E-14, 6.037963746543281049E-15, 10.34814221232135267 ) ) ;
#23 = DIRECTION ( 'NONE',  ( -2.002006179196712588E-30, 1.000000000000000000, -5.916903747971832577E-16 ) ) ;
#24 = CARTESIAN_POINT ( 'NONE',  ( -1.892735826383161356E-31, 1.779662432702592501, -5.421010862427522170E-17 ) ) ;
#25 = DIRECTION ( 'NONE',  ( -3.491481338843133355E-15, -5.834828728343124897E-16, -1.000000000000000000 ) ) ;
#26 = CLOSED_SHELL ( 'NONE', ( #171, #78, #20, #65 ) ) ;
#27 = CC_DESIGN_SECURITY_CLASSIFICATION ( #5, ( #181 ) ) ;
#28 = CARTESIAN_POINT ( 'NONE',  ( 2.444036937190193601E-13, -7.347880794884121511E-15, 70.00000000000000000 ) ) ;
#29 = APPROVAL_STATUS ( 'not_yet_approved' ) ;
#30 = CIRCLE ( 'NONE', #16, 1.923999999999992605 ) ;
#31 = AXIS2_PLACEMENT_3D ( 'NONE', #87, #165, #66 ) ;
#32 = DATE_AND_TIME ( #11, #55 ) ;
#33 = DATE_AND_TIME ( #223, #142 ) ;
#34 = EDGE_LOOP ( 'NONE', ( #173 ) ) ;
#35 = ORIENTED_EDGE ( 'NONE', *, *, #217, .T. ) ;
#36 = LOCAL_TIME ( 14, 2, 11.00000000000000000, #208 ) ;
#37 = CC_DESIGN_PERSON_AND_ORGANIZATION_ASSIGNMENT ( #50, #109, ( #181 ) ) ;
#38 = ORIENTED_EDGE ( 'NONE', *, *, #116, .T. ) ;
#39 = FACE_OUTER_BOUND ( 'NONE', #51, .T. ) ;
#40 = CARTESIAN_POINT ( 'NONE',  ( -1.907418352179935889E-30, 1.779662432702592501, -5.463063287664425896E-16 ) ) ;
#41 = PLANE ( 'NONE',  #75 ) ;
#42 = DIRECTION ( 'NONE',  ( -3.491481338843133355E-15, -5.834828728343124897E-16, -1.000000000000000000 ) ) ;
#43 = CARTESIAN_POINT ( 'NONE',  ( 3.613034542601490418E-14, 1.923999999999998600, 10.34814221232135267 ) ) ;
#44 = COORDINATED_UNIVERSAL_TIME_OFFSET ( 1, 0, .AHEAD. ) ;
#45 = FACE_BOUND ( 'NONE', #56, .T. ) ;
#46 = VERTEX_POINT ( 'NONE', #144 ) ;
#47 = APPROVAL ( #192, 'UNSPECIFIED' ) ;
#48 = APPLICATION_CONTEXT ( 'configuration controlled 3d designs of mechanical parts and assemblies' ) ;
#49 = PERSON_AND_ORGANIZATION ( #88, #160 ) ;
#50 = PERSON_AND_ORGANIZATION ( #88, #160 ) ;
#51 = EDGE_LOOP ( 'NONE', ( #141 ) ) ;
#52 = APPROVAL_DATE_TIME ( #170, #47 ) ;
#53 = APPROVAL_ROLE ( '' ) ;
#54 = EDGE_LOOP ( 'NONE', ( #98 ) ) ;
#55 = LOCAL_TIME ( 14, 2, 11.00000000000000000, #73 ) ;
#56 = EDGE_LOOP ( 'NONE', ( #157 ) ) ;
#57 = EDGE_LOOP ( 'NONE', ( #134 ) ) ;
#58 = DIRECTION ( 'NONE',  ( -2.037219562035583043E-30, 1.000000000000000000, -5.834828728343125883E-16 ) ) ;
#59 = ADVANCED_FACE ( 'NONE', ( #62, #179 ), #188, .T. ) ;
#60 = DIRECTION ( 'NONE',  ( -3.203209886714749951E-30, 1.000000000000000000, -9.016234282623772864E-16 ) ) ;
#61 = DIRECTION ( 'NONE',  ( -3.491481338843133355E-15, 1.049697256412017316E-16, -1.000000000000000000 ) ) ;
#62 = FACE_BOUND ( 'NONE', #14, .T. ) ;
#63 = APPROVAL_ROLE ( '' ) ;
#64 = DIRECTION ( 'NONE',  ( 3.491481338843133355E-15, -1.049697256412017316E-16, 1.000000000000000000 ) ) ;
#65 = ADVANCED_FACE ( 'NONE', ( #39 ), #198, .T. ) ;
#66 = DIRECTION ( 'NONE',  ( 1.000000000000000000, 0.0000000000000000000, 0.0000000000000000000 ) ) ;
#67 = LOCAL_TIME ( 14, 2, 11.00000000000000000, #13 ) ;
#68 = MANIFOLD_SOLID_BREP ( 'Corps-Déplacer/Copier1[1]', #169 ) ;
#69 = DIRECTION ( 'NONE',  ( 3.491481338843133355E-15, 5.834828728343124897E-16, 1.000000000000000000 ) ) ;
#70 = APPROVAL_PERSON_ORGANIZATION ( #152, #108, #53 ) ;
#71 = PERSON_AND_ORGANIZATION_ROLE ( 'classification_officer' ) ;
#72 = ORIENTED_EDGE ( 'NONE', *, *, #116, .F. ) ;
#73 = COORDINATED_UNIVERSAL_TIME_OFFSET ( 1, 0, .AHEAD. ) ;
#74 = PERSON_AND_ORGANIZATION ( #88, #160 ) ;
#75 = AXIS2_PLACEMENT_3D ( 'NONE', #22, #69, #146 ) ;
#76 = CARTESIAN_POINT ( 'NONE',  ( 3.436289539083239551E-30, 5.742594324789161259E-31, 9.841924402843347358E-16 ) ) ;
#77 = CARTESIAN_POINT ( 'NONE',  ( 3.613034542601491049E-14, 6.037963746543281838E-15, 10.34814221232135445 ) ) ;
#78 = ADVANCED_FACE ( 'NONE', ( #2, #117 ), #243, .T. ) ;
#79 = DIRECTION ( 'NONE',  ( -3.491481338843133355E-15, -5.834828728343124897E-16, -1.000000000000000000 ) ) ;
#80 = EDGE_LOOP ( 'NONE', ( #133 ) ) ;
#81 = VERTEX_POINT ( 'NONE', #183 ) ;
#82 = CC_DESIGN_DATE_AND_TIME_ASSIGNMENT ( #190, #172, ( #174 ) ) ;
#83 = CIRCLE ( 'NONE', #177, 1.199999999999997513 ) ;
#84 = APPLICATION_PROTOCOL_DEFINITION ( 'international standard', 'config_control_design', 1994, #48 ) ;
#85 =( NAMED_UNIT ( * ) PLANE_ANGLE_UNIT ( ) SI_UNIT ( $, .RADIAN. ) );
#86 = ADVANCED_FACE ( 'NONE', ( #159, #182 ), #163, .T. ) ;
#87 = CARTESIAN_POINT ( 'NONE',  ( 0.0000000000000000000, 0.0000000000000000000, 0.0000000000000000000 ) ) ;
#88 = PERSON ( 'UNSPECIFIED', 'UNSPECIFIED', 'UNSPECIFIED', ('UNSPECIFIED'), ('UNSPECIFIED'), ('UNSPECIFIED') ) ;
#89 = PERSON_AND_ORGANIZATION_ROLE ( 'creator' ) ;
#90 = PRODUCT ( '321288', '321288', '', ( #9 ) ) ;
#91 = DESIGN_CONTEXT ( 'detailed design', #195, 'design' ) ;
#92 = CC_DESIGN_PERSON_AND_ORGANIZATION_ASSIGNMENT ( #189, #147, ( #174 ) ) ;
#93 = CARTESIAN_POINT ( 'NONE',  ( 3.436289539083239551E-30, 5.742594324789161259E-31, 9.841924402843347358E-16 ) ) ;
#94 = AXIS2_PLACEMENT_3D ( 'NONE', #7, #96, #180 ) ;
#95 = DIRECTION ( 'NONE',  ( 3.664998382197393967E-31, 1.000000000000000000, 1.049697256412017316E-16 ) ) ;
#96 = DIRECTION ( 'NONE',  ( -3.491481338843133355E-15, 1.049697256412017316E-16, -1.000000000000000000 ) ) ;
#97 = EDGE_CURVE ( 'NONE', #237, #237, #131, .T. ) ;
#98 = ORIENTED_EDGE ( 'NONE', *, *, #217, .F. ) ;
#99 = AXIS2_PLACEMENT_3D ( 'NONE', #18, #139, #211 ) ;
#100 = EDGE_LOOP ( 'NONE', ( #72 ) ) ;
#101 = EDGE_CURVE ( 'NONE', #81, #81, #30, .T. ) ;
#102 = CARTESIAN_POINT ( 'NONE',  ( 8.728703347107835360E-16, 1.923999999999998600, 0.2500000000000000000 ) ) ;
#103 = AXIS2_PLACEMENT_3D ( 'NONE', #216, #128, #218 ) ;
#104 = DIRECTION ( 'NONE',  ( -3.664998382197393967E-31, -1.000000000000000000, -1.049697256412017316E-16 ) ) ;
#105 = ADVANCED_FACE ( 'NONE', ( #1 ), #232, .T. ) ;
#106 = APPROVAL_DATE_TIME ( #32, #108 ) ;
#107 = AXIS2_PLACEMENT_3D ( 'NONE', #143, #25, #23 ) ;
#108 = APPROVAL ( #29, 'UNSPECIFIED' ) ;
#109 = PERSON_AND_ORGANIZATION_ROLE ( 'design_supplier' ) ;
#110 = EDGE_LOOP ( 'NONE', ( #161 ) ) ;
#111 = AXIS2_PLACEMENT_3D ( 'NONE', #196, #213, #231 ) ;
#112 = DATE_TIME_ROLE ( 'classification_date' ) ;
#113 = PRODUCT_RELATED_PRODUCT_CATEGORY ( 'detail', '', ( #90 ) ) ;
#114 = DIRECTION ( 'NONE',  ( -2.037219562035583043E-30, 1.000000000000000000, -5.834828728343124897E-16 ) ) ;
#115 = AXIS2_PLACEMENT_3D ( 'NONE', #76, #178, #19 ) ;
#116 = EDGE_CURVE ( 'NONE', #238, #238, #209, .T. ) ;
#117 = FACE_OUTER_BOUND ( 'NONE', #54, .T. ) ;
#118 = DIRECTION ( 'NONE',  ( 3.491481338843133355E-15, 5.834828728343124897E-16, 1.000000000000000000 ) ) ;
#119 = DIRECTION ( 'NONE',  ( -3.491481338843133355E-15, 1.049697256412017316E-16, -1.000000000000000000 ) ) ;
#120 = AXIS2_PLACEMENT_3D ( 'NONE', #197, #122, #58 ) ;
#121 = LOCAL_TIME ( 14, 2, 11.00000000000000000, #228 ) ;
#122 = DIRECTION ( 'NONE',  ( -3.491481338843133355E-15, -5.834828728343124897E-16, -1.000000000000000000 ) ) ;
#123 = FACE_OUTER_BOUND ( 'NONE', #57, .T. ) ;
#124 = ADVANCED_BREP_SHAPE_REPRESENTATION ( '321288', ( #68, #158, #31 ), #184 ) ;
#125 = PLANE ( 'NONE',  #148 ) ;
#126 = CIRCLE ( 'NONE', #10, 1.499999999999997558 ) ;
#127 = DIRECTION ( 'NONE',  ( 0.0000000000000000000, 1.000000000000000000, 0.0000000000000000000 ) ) ;
#128 = DIRECTION ( 'NONE',  ( -3.491481338843133355E-15, 1.049697256412017316E-16, -1.000000000000000000 ) ) ;
#129 = SHAPE_DEFINITION_REPRESENTATION ( #162, #124 ) ;
#130 = EDGE_CURVE ( 'NONE', #145, #145, #138, .T. ) ;
#131 = CIRCLE ( 'NONE', #115, 1.779662432702592501 ) ;
#132 = APPROVAL_ROLE ( '' ) ;
#133 = ORIENTED_EDGE ( 'NONE', *, *, #130, .F. ) ;
#134 = ORIENTED_EDGE ( 'NONE', *, *, #233, .F. ) ;
#135 = APPROVAL_PERSON_ORGANIZATION ( #168, #47, #132 ) ;
#136 = ORIENTED_EDGE ( 'NONE', *, *, #149, .T. ) ;
#137 = CARTESIAN_POINT ( 'NONE',  ( 3.613034542601490418E-14, 1.923999999999998600, 10.34814221232135267 ) ) ;
#138 = CIRCLE ( 'NONE', #99, 1.923999999999999710 ) ;
#139 = DIRECTION ( 'NONE',  ( -3.491481338843133355E-15, 1.049697256412017316E-16, -1.000000000000000000 ) ) ;
#140 = DIRECTION ( 'NONE',  ( 0.0000000000000000000, 1.000000000000000000, 0.0000000000000000000 ) ) ;
#141 = ORIENTED_EDGE ( 'NONE', *, *, #97, .T. ) ;
#142 = LOCAL_TIME ( 14, 2, 11.00000000000000000, #44 ) ;
#143 = CARTESIAN_POINT ( 'NONE',  ( 8.728703347107873817E-16, 1.458707182085787880E-16, 0.2500000000000011657 ) ) ;
#144 = CARTESIAN_POINT ( 'NONE',  ( 2.433562493173664138E-13, 1.499999999999990230, 69.70000000000001705 ) ) ;
#145 = VERTEX_POINT ( 'NONE', #43 ) ;
#146 = DIRECTION ( 'NONE',  ( 2.037219562035583043E-30, -1.000000000000000000, 5.834828728343124897E-16 ) ) ;
#147 = PERSON_AND_ORGANIZATION_ROLE ( 'creator' ) ;
#148 = AXIS2_PLACEMENT_3D ( 'NONE', #204, #64, #104 ) ;
#149 = EDGE_CURVE ( 'NONE', #46, #46, #126, .T. ) ;
#150 = CALENDAR_DATE ( 2021, 26, 11 ) ;
#151 = ORIENTED_EDGE ( 'NONE', *, *, #101, .T. ) ;
#152 = PERSON_AND_ORGANIZATION ( #88, #160 ) ;
#153 = APPROVAL_DATE_TIME ( #33, #242 ) ;
#154 = CONICAL_SURFACE ( 'NONE', #203, 1.779662432702592501, 0.5235987755982969283 ) ;
#155 = DIRECTION ( 'NONE',  ( 3.664998382197393967E-31, 1.000000000000000000, 1.049697256412017316E-16 ) ) ;
#156 = CC_DESIGN_DATE_AND_TIME_ASSIGNMENT ( #167, #112, ( #5 ) ) ;
#157 = ORIENTED_EDGE ( 'NONE', *, *, #233, .T. ) ;
#158 = MANIFOLD_SOLID_BREP ( 'Corps-Déplacer/Copier1[2]', #26 ) ;
#159 = FACE_OUTER_BOUND ( 'NONE', #225, .T. ) ;
#160 = ORGANIZATION ( 'UNSPECIFIED', 'UNSPECIFIED', '' ) ;
#161 = ORIENTED_EDGE ( 'NONE', *, *, #97, .F. ) ;
#162 = PRODUCT_DEFINITION_SHAPE ( 'NONE', 'NONE',  #174 ) ;
#163 = CYLINDRICAL_SURFACE ( 'NONE', #199, 1.499999999999995337 ) ;
#164 = PERSON_AND_ORGANIZATION ( #88, #160 ) ;
#165 = DIRECTION ( 'NONE',  ( 0.0000000000000000000, 0.0000000000000000000, 1.000000000000000000 ) ) ;
#166 = PERSON_AND_ORGANIZATION_ROLE ( 'design_owner' ) ;
#167 = DATE_AND_TIME ( #150, #121 ) ;
#168 = PERSON_AND_ORGANIZATION ( #88, #160 ) ;
#169 = CLOSED_SHELL ( 'NONE', ( #201, #215, #86, #59, #105 ) ) ;
#170 = DATE_AND_TIME ( #241, #67 ) ;
#171 = ADVANCED_FACE ( 'NONE', ( #212 ), #41, .T. ) ;
#172 = DATE_TIME_ROLE ( 'creation_date' ) ;
#173 = ORIENTED_EDGE ( 'NONE', *, *, #149, .F. ) ;
#174 = PRODUCT_DEFINITION ( 'UNKNOWN', '', #181, #91 ) ;
#175 = CIRCLE ( 'NONE', #107, 1.923999999999998378 ) ;
#176 = DIRECTION ( 'NONE',  ( 2.037219562035582343E-30, -1.000000000000000000, 5.834828728343124897E-16 ) ) ;
#177 = AXIS2_PLACEMENT_3D ( 'NONE', #28, #200, #127 ) ;
#178 = DIRECTION ( 'NONE',  ( -3.491481338843133355E-15, -5.834828728343124897E-16, -1.000000000000000000 ) ) ;
#179 = FACE_OUTER_BOUND ( 'NONE', #80, .T. ) ;
#180 = DIRECTION ( 'NONE',  ( 0.0000000000000000000, 1.000000000000000000, 0.0000000000000000000 ) ) ;
#181 = PRODUCT_DEFINITION_FORMATION_WITH_SPECIFIED_SOURCE ( 'ANY', '', #90, .NOT_KNOWN. ) ;
#182 = FACE_OUTER_BOUND ( 'NONE', #100, .T. ) ;
#183 = CARTESIAN_POINT ( 'NONE',  ( 3.613034542601490418E-14, 1.923999999999998600, 10.34814221232135267 ) ) ;
#184 =( GEOMETRIC_REPRESENTATION_CONTEXT ( 3 ) GLOBAL_UNCERTAINTY_ASSIGNED_CONTEXT ( ( #224 ) ) GLOBAL_UNIT_ASSIGNED_CONTEXT ( ( #8, #85, #205 ) ) REPRESENTATION_CONTEXT ( 'NONE', 'WORKASPACE' ) );
#185 = CC_DESIGN_APPROVAL ( #47, ( #181 ) ) ;
#186 = FACE_OUTER_BOUND ( 'NONE', #34, .T. ) ;
#187 = VERTEX_POINT ( 'NONE', #102 ) ;
#188 = CONICAL_SURFACE ( 'NONE', #94, 1.923999999999999710, 0.5235987755982934866 ) ;
#189 = PERSON_AND_ORGANIZATION ( #88, #160 ) ;
#190 = DATE_AND_TIME ( #206, #36 ) ;
#191 = EDGE_LOOP ( 'NONE', ( #35 ) ) ;
#192 = APPROVAL_STATUS ( 'not_yet_approved' ) ;
#193 = AXIS2_PLACEMENT_3D ( 'NONE', #137, #119, #155 ) ;
#194 = ORIENTED_EDGE ( 'NONE', *, *, #130, .T. ) ;
#195 = APPLICATION_CONTEXT ( 'configuration controlled 3d designs of mechanical parts and assemblies' ) ;
#196 = CARTESIAN_POINT ( 'NONE',  ( 3.869445280877825814E-14, -1.163330317703974832E-15, 11.08253175473057794 ) ) ;
#197 = CARTESIAN_POINT ( 'NONE',  ( 0.0000000000000000000, 0.0000000000000000000, 0.0000000000000000000 ) ) ;
#198 = PLANE ( 'NONE',  #214 ) ;
#199 = AXIS2_PLACEMENT_3D ( 'NONE', #17, #234, #95 ) ;
#200 = DIRECTION ( 'NONE',  ( -3.491481338843133355E-15, 1.049697256412017316E-16, -1.000000000000000000 ) ) ;
#201 = ADVANCED_FACE ( 'NONE', ( #123 ), #125, .T. ) ;
#202 = CARTESIAN_POINT ( 'NONE',  ( 3.869445280877825814E-14, 1.499999999999991562, 11.08253175473057794 ) ) ;
#203 = AXIS2_PLACEMENT_3D ( 'NONE', #93, #118, #176 ) ;
#204 = CARTESIAN_POINT ( 'NONE',  ( 2.444036937190193601E-13, -7.347880794884121511E-15, 70.00000000000000000 ) ) ;
#205 =( NAMED_UNIT ( * ) SI_UNIT ( $, .STERADIAN. ) SOLID_ANGLE_UNIT ( ) );
#206 = CALENDAR_DATE ( 2021, 26, 11 ) ;
#207 = EDGE_LOOP ( 'NONE', ( #194 ) ) ;
#208 = COORDINATED_UNIVERSAL_TIME_OFFSET ( 1, 0, .AHEAD. ) ;
#209 = CIRCLE ( 'NONE', #111, 1.499999999999992673 ) ;
#210 = FACE_OUTER_BOUND ( 'NONE', #191, .T. ) ;
#211 = DIRECTION ( 'NONE',  ( 0.0000000000000000000, 1.000000000000000000, 0.0000000000000000000 ) ) ;
#212 = FACE_OUTER_BOUND ( 'NONE', #12, .T. ) ;
#213 = DIRECTION ( 'NONE',  ( -3.491481338843133355E-15, 1.049697256412017316E-16, -1.000000000000000000 ) ) ;
#214 = AXIS2_PLACEMENT_3D ( 'NONE', #40, #42, #114 ) ;
#215 = ADVANCED_FACE ( 'NONE', ( #45, #186 ), #21, .T. ) ;
#216 = CARTESIAN_POINT ( 'NONE',  ( 2.433562493173664138E-13, -7.316389877191761450E-15, 69.70000000000001705 ) ) ;
#217 = EDGE_CURVE ( 'NONE', #187, #187, #175, .T. ) ;
#218 = DIRECTION ( 'NONE',  ( 0.0000000000000000000, 1.000000000000000000, 0.0000000000000000000 ) ) ;
#219 = APPROVAL_PERSON_ORGANIZATION ( #49, #242, #63 ) ;
#220 = VERTEX_POINT ( 'NONE', #239 ) ;
#221 = APPLICATION_PROTOCOL_DEFINITION ( 'international standard', 'config_control_design', 1994, #195 ) ;
#222 = SECURITY_CLASSIFICATION_LEVEL ( 'unclassified' ) ;
#223 = CALENDAR_DATE ( 2021, 26, 11 ) ;
#224 = UNCERTAINTY_MEASURE_WITH_UNIT (LENGTH_MEASURE( 1.000000000000000082E-05 ), #8, 'distance_accuracy_value', 'NONE');
#225 = EDGE_LOOP ( 'NONE', ( #136 ) ) ;
#226 = PERSON_AND_ORGANIZATION ( #88, #160 ) ;
#227 = CC_DESIGN_PERSON_AND_ORGANIZATION_ASSIGNMENT ( #164, #166, ( #90 ) ) ;
#228 = COORDINATED_UNIVERSAL_TIME_OFFSET ( 1, 0, .AHEAD. ) ;
#229 = CC_DESIGN_APPROVAL ( #108, ( #5 ) ) ;
#230 = EDGE_LOOP ( 'NONE', ( #151 ) ) ;
#231 = DIRECTION ( 'NONE',  ( 0.0000000000000000000, 1.000000000000000000, 0.0000000000000000000 ) ) ;
#232 = PLANE ( 'NONE',  #193 ) ;
#233 = EDGE_CURVE ( 'NONE', #220, #220, #83, .T. ) ;
#234 = DIRECTION ( 'NONE',  ( -3.491481338843133355E-15, 1.049697256412017316E-16, -1.000000000000000000 ) ) ;
#235 = CARTESIAN_POINT ( 'NONE',  ( 2.433562493173664138E-13, -7.316389877191761450E-15, 69.70000000000001705 ) ) ;
#236 = APPROVAL_STATUS ( 'not_yet_approved' ) ;
#237 = VERTEX_POINT ( 'NONE', #24 ) ;
#238 = VERTEX_POINT ( 'NONE', #202 ) ;
#239 = CARTESIAN_POINT ( 'NONE',  ( 2.444036937190193601E-13, 1.199999999999990186, 70.00000000000000000 ) ) ;
#240 = CC_DESIGN_PERSON_AND_ORGANIZATION_ASSIGNMENT ( #226, #71, ( #5 ) ) ;
#241 = CALENDAR_DATE ( 2021, 26, 11 ) ;
#242 = APPROVAL ( #236, 'UNSPECIFIED' ) ;
#243 = CYLINDRICAL_SURFACE ( 'NONE', #120, 1.923999999999995492 ) ;
ENDSEC;
END-ISO-10303-21;
