ISO-10303-21;
HEADER;
FILE_DESCRIPTION (( 'STEP AP203' ),
    '1' );
FILE_NAME ('321287.step',
    '2021-11-26T13:02:11',
    ( '' ),
    ( '' ),
    'SwSTEP 2.0',
    'SolidWorks 2019',
    '' );
FILE_SCHEMA (( 'CONFIG_CONTROL_DESIGN' ));
ENDSEC;

DATA;
#1 = DIRECTION ( 'NONE',  ( 0.0000000000000000000, 1.000000000000000000, 0.0000000000000000000 ) ) ;
#2 = CARTESIAN_POINT ( 'NONE',  ( 8.728703347107873817E-16, 1.456975407146990119E-16, 0.2500000000000011657 ) ) ;
#3 = AXIS2_PLACEMENT_3D ( 'NONE', #2, #173, #188 ) ;
#4 = CARTESIAN_POINT ( 'NONE',  ( 3.421811271191769790E-30, 5.711609928497179020E-31, 9.800456995498511235E-16 ) ) ;
#5 = EDGE_LOOP ( 'NONE', ( #190 ) ) ;
#6 = VERTEX_POINT ( 'NONE', #234 ) ;
#7 =( GEOMETRIC_REPRESENTATION_CONTEXT ( 3 ) GLOBAL_UNCERTAINTY_ASSIGNED_CONTEXT ( ( #221 ) ) GLOBAL_UNIT_ASSIGNED_CONTEXT ( ( #174, #10, #26 ) ) REPRESENTATION_CONTEXT ( 'NONE', 'WORKASPACE' ) );
#8 = APPROVAL ( #183, 'UNSPECIFIED' ) ;
#9 = CARTESIAN_POINT ( 'NONE',  ( 3.421811271191769790E-30, 5.711609928497179020E-31, 9.800456995498511235E-16 ) ) ;
#10 =( NAMED_UNIT ( * ) PLANE_ANGLE_UNIT ( ) SI_UNIT ( $, .RADIAN. ) );
#11 = EDGE_LOOP ( 'NONE', ( #207 ) ) ;
#12 = COORDINATED_UNIVERSAL_TIME_OFFSET ( 1, 0, .AHEAD. ) ;
#13 = ADVANCED_FACE ( 'NONE', ( #57, #39 ), #131, .T. ) ;
#14 = DATE_AND_TIME ( #157, #132 ) ;
#15 = PLANE ( 'NONE',  #197 ) ;
#16 = LOCAL_TIME ( 14, 2, 11.00000000000000000, #69 ) ;
#17 = DIRECTION ( 'NONE',  ( 0.0000000000000000000, 1.000000000000000000, 0.0000000000000000000 ) ) ;
#18 = ORIENTED_EDGE ( 'NONE', *, *, #86, .F. ) ;
#19 = DIRECTION ( 'NONE',  ( 3.664998382197393967E-31, 1.000000000000000000, 1.049697256412017316E-16 ) ) ;
#20 = EDGE_LOOP ( 'NONE', ( #111 ) ) ;
#21 = SECURITY_CLASSIFICATION ( '', '', #182 ) ;
#22 = CARTESIAN_POINT ( 'NONE',  ( 0.0000000000000000000, 0.0000000000000000000, 0.0000000000000000000 ) ) ;
#23 = ADVANCED_BREP_SHAPE_REPRESENTATION ( '321287', ( #72, #63, #37 ), #7 ) ;
#24 = CARTESIAN_POINT ( 'NONE',  ( 3.616058254137766660E-14, 1.918999999999998929, 10.35680246635919666 ) ) ;
#25 = CIRCLE ( 'NONE', #180, 1.774662432702592607 ) ;
#26 =( NAMED_UNIT ( * ) SI_UNIT ( $, .STERADIAN. ) SOLID_ANGLE_UNIT ( ) );
#27 = AXIS2_PLACEMENT_3D ( 'NONE', #147, #224, #19 ) ;
#28 = PERSON_AND_ORGANIZATION_ROLE ( 'classification_officer' ) ;
#29 = COORDINATED_UNIVERSAL_TIME_OFFSET ( 1, 0, .AHEAD. ) ;
#30 = PERSON_AND_ORGANIZATION ( #83, #176 ) ;
#31 = EDGE_LOOP ( 'NONE', ( #40 ) ) ;
#32 = CC_DESIGN_PERSON_AND_ORGANIZATION_ASSIGNMENT ( #110, #106, ( #142 ) ) ;
#33 = CIRCLE ( 'NONE', #159, 1.918999999999999817 ) ;
#34 = APPROVAL_STATUS ( 'not_yet_approved' ) ;
#35 = ADVANCED_FACE ( 'NONE', ( #166 ), #93, .T. ) ;
#36 = EDGE_LOOP ( 'NONE', ( #18 ) ) ;
#37 = AXIS2_PLACEMENT_3D ( 'NONE', #97, #231, #42 ) ;
#38 = FACE_BOUND ( 'NONE', #5, .T. ) ;
#39 = FACE_OUTER_BOUND ( 'NONE', #185, .T. ) ;
#40 = ORIENTED_EDGE ( 'NONE', *, *, #206, .T. ) ;
#41 = CARTESIAN_POINT ( 'NONE',  ( 2.444036937190193601E-13, -7.347880794884121511E-15, 70.00000000000000000 ) ) ;
#42 = DIRECTION ( 'NONE',  ( 1.000000000000000000, 0.0000000000000000000, 0.0000000000000000000 ) ) ;
#43 = CC_DESIGN_PERSON_AND_ORGANIZATION_ASSIGNMENT ( #101, #105, ( #103 ) ) ;
#44 = DIRECTION ( 'NONE',  ( 2.034800978082827507E-30, -1.000000000000000000, 5.827901628587933851E-16 ) ) ;
#45 = CYLINDRICAL_SURFACE ( 'NONE', #165, 1.918999999999995820 ) ;
#46 = DIRECTION ( 'NONE',  ( -3.491481338843133355E-15, -5.827901628587933851E-16, -1.000000000000000000 ) ) ;
#47 = CALENDAR_DATE ( 2021, 26, 11 ) ;
#48 = DATE_AND_TIME ( #85, #204 ) ;
#49 = EDGE_CURVE ( 'NONE', #6, #6, #81, .T. ) ;
#50 = APPROVAL_STATUS ( 'not_yet_approved' ) ;
#51 = PERSON_AND_ORGANIZATION ( #83, #176 ) ;
#52 = EDGE_CURVE ( 'NONE', #79, #79, #108, .T. ) ;
#53 = DIRECTION ( 'NONE',  ( -3.491481338843133355E-15, 1.049697256412017316E-16, -1.000000000000000000 ) ) ;
#54 = ORIENTED_EDGE ( 'NONE', *, *, #52, .F. ) ;
#55 = PLANE ( 'NONE',  #27 ) ;
#56 = EDGE_CURVE ( 'NONE', #175, #175, #25, .T. ) ;
#57 = FACE_BOUND ( 'NONE', #114, .T. ) ;
#58 = FACE_OUTER_BOUND ( 'NONE', #20, .T. ) ;
#59 = VERTEX_POINT ( 'NONE', #217 ) ;
#60 = FACE_OUTER_BOUND ( 'NONE', #220, .T. ) ;
#61 = DIRECTION ( 'NONE',  ( -3.211555926023542212E-30, 1.000000000000000000, -9.039726294824458079E-16 ) ) ;
#62 = DIRECTION ( 'NONE',  ( 3.664998382197393967E-31, 1.000000000000000000, 1.049697256412017316E-16 ) ) ;
#63 = MANIFOLD_SOLID_BREP ( 'Corps-Déplacer/Copier1[2]', #215 ) ;
#64 = DATE_AND_TIME ( #47, #109 ) ;
#65 = DATE_AND_TIME ( #87, #156 ) ;
#66 = APPROVAL_PERSON_ORGANIZATION ( #238, #210, #143 ) ;
#67 = EDGE_LOOP ( 'NONE', ( #107 ) ) ;
#68 = CALENDAR_DATE ( 2021, 26, 11 ) ;
#69 = COORDINATED_UNIVERSAL_TIME_OFFSET ( 1, 0, .AHEAD. ) ;
#70 = AXIS2_PLACEMENT_3D ( 'NONE', #149, #130, #91 ) ;
#71 = APPROVAL_PERSON_ORGANIZATION ( #187, #8, #184 ) ;
#72 = MANIFOLD_SOLID_BREP ( 'Corps-Déplacer/Copier1[1]', #127 ) ;
#73 = FACE_OUTER_BOUND ( 'NONE', #240, .T. ) ;
#74 = PRODUCT_DEFINITION_SHAPE ( 'NONE', 'NONE',  #142 ) ;
#75 = FACE_OUTER_BOUND ( 'NONE', #152, .T. ) ;
#76 = ADVANCED_FACE ( 'NONE', ( #73 ), #55, .T. ) ;
#77 = DIRECTION ( 'NONE',  ( -2.034800978082827507E-30, 1.000000000000000000, -5.827901628587933851E-16 ) ) ;
#78 = DIRECTION ( 'NONE',  ( -3.491481338843133355E-15, -5.827901628587933851E-16, -1.000000000000000000 ) ) ;
#79 = VERTEX_POINT ( 'NONE', #82 ) ;
#80 = APPROVAL ( #34, 'UNSPECIFIED' ) ;
#81 = CIRCLE ( 'NONE', #227, 1.199999999999997513 ) ;
#82 = CARTESIAN_POINT ( 'NONE',  ( 8.728703347107835360E-16, 1.918999999999998929, 0.2500000000000000000 ) ) ;
#83 = PERSON ( 'UNSPECIFIED', 'UNSPECIFIED', 'UNSPECIFIED', ('UNSPECIFIED'), ('UNSPECIFIED'), ('UNSPECIFIED') ) ;
#84 = AXIS2_PLACEMENT_3D ( 'NONE', #236, #140, #62 ) ;
#85 = CALENDAR_DATE ( 2021, 26, 11 ) ;
#86 = EDGE_CURVE ( 'NONE', #178, #178, #119, .T. ) ;
#87 = CALENDAR_DATE ( 2021, 26, 11 ) ;
#88 = PERSON_AND_ORGANIZATION ( #83, #176 ) ;
#89 = DIRECTION ( 'NONE',  ( 3.491481338843133355E-15, 5.827901628587933851E-16, 1.000000000000000000 ) ) ;
#90 = CARTESIAN_POINT ( 'NONE',  ( 3.616058254137766660E-14, -1.087150713413846247E-15, 10.35680246635919666 ) ) ;
#91 = DIRECTION ( 'NONE',  ( 0.0000000000000000000, 1.000000000000000000, 0.0000000000000000000 ) ) ;
#92 = EDGE_CURVE ( 'NONE', #214, #214, #33, .T. ) ;
#93 = PLANE ( 'NONE',  #167 ) ;
#94 = AXIS2_PLACEMENT_3D ( 'NONE', #211, #122, #61 ) ;
#95 = CARTESIAN_POINT ( 'NONE',  ( 2.444036937190193601E-13, -7.347880794884121511E-15, 70.00000000000000000 ) ) ;
#96 = CC_DESIGN_PERSON_AND_ORGANIZATION_ASSIGNMENT ( #88, #186, ( #103 ) ) ;
#97 = CARTESIAN_POINT ( 'NONE',  ( 0.0000000000000000000, 0.0000000000000000000, 0.0000000000000000000 ) ) ;
#98 = DIRECTION ( 'NONE',  ( -2.034800978082827156E-30, 1.000000000000000000, -5.827901628587933851E-16 ) ) ;
#99 = APPROVAL_PERSON_ORGANIZATION ( #30, #80, #203 ) ;
#100 = VERTEX_POINT ( 'NONE', #199 ) ;
#101 = PERSON_AND_ORGANIZATION ( #83, #176 ) ;
#102 = AXIS2_PLACEMENT_3D ( 'NONE', #141, #155, #219 ) ;
#103 = PRODUCT_DEFINITION_FORMATION_WITH_SPECIFIED_SOURCE ( 'ANY', '', #129, .NOT_KNOWN. ) ;
#104 = ADVANCED_FACE ( 'NONE', ( #75 ), #209, .T. ) ;
#105 = PERSON_AND_ORGANIZATION_ROLE ( 'design_supplier' ) ;
#106 = PERSON_AND_ORGANIZATION_ROLE ( 'creator' ) ;
#107 = ORIENTED_EDGE ( 'NONE', *, *, #56, .F. ) ;
#108 = CIRCLE ( 'NONE', #3, 1.918999999999998707 ) ;
#109 = LOCAL_TIME ( 14, 2, 11.00000000000000000, #29 ) ;
#110 = PERSON_AND_ORGANIZATION ( #83, #176 ) ;
#111 = ORIENTED_EDGE ( 'NONE', *, *, #206, .F. ) ;
#112 = EDGE_LOOP ( 'NONE', ( #201 ) ) ;
#113 = DIRECTION ( 'NONE',  ( -3.491481338843133355E-15, 1.049697256412017316E-16, -1.000000000000000000 ) ) ;
#114 = EDGE_LOOP ( 'NONE', ( #133 ) ) ;
#115 = AXIS2_PLACEMENT_3D ( 'NONE', #134, #53, #17 ) ;
#116 = DIRECTION ( 'NONE',  ( -3.664998382197393967E-31, -1.000000000000000000, -1.049697256412017316E-16 ) ) ;
#117 = DIRECTION ( 'NONE',  ( 0.0000000000000000000, 1.000000000000000000, 0.0000000000000000000 ) ) ;
#118 = CARTESIAN_POINT ( 'NONE',  ( 3.869445280877825814E-14, -1.163330317703974832E-15, 11.08253175473057794 ) ) ;
#119 = CIRCLE ( 'NONE', #115, 1.499999999999997558 ) ;
#120 = FACE_OUTER_BOUND ( 'NONE', #230, .T. ) ;
#121 = ADVANCED_FACE ( 'NONE', ( #58 ), #15, .T. ) ;
#122 = DIRECTION ( 'NONE',  ( -3.491481338843133355E-15, -5.827901628587933851E-16, -1.000000000000000000 ) ) ;
#123 = CC_DESIGN_PERSON_AND_ORGANIZATION_ASSIGNMENT ( #51, #125, ( #129 ) ) ;
#124 = CIRCLE ( 'NONE', #94, 1.918999999999992712 ) ;
#125 = PERSON_AND_ORGANIZATION_ROLE ( 'design_owner' ) ;
#126 = DATE_TIME_ROLE ( 'creation_date' ) ;
#127 = CLOSED_SHELL ( 'NONE', ( #35, #139, #162, #13, #76 ) ) ;
#128 = CC_DESIGN_PERSON_AND_ORGANIZATION_ASSIGNMENT ( #241, #28, ( #21 ) ) ;
#129 = PRODUCT ( '321287', '321287', '', ( #237 ) ) ;
#130 = DIRECTION ( 'NONE',  ( -3.491481338843133355E-15, 1.049697256412017316E-16, -1.000000000000000000 ) ) ;
#131 = CONICAL_SURFACE ( 'NONE', #70, 1.918999999999999817, 0.5235987755982930425 ) ;
#132 = LOCAL_TIME ( 14, 2, 11.00000000000000000, #12 ) ;
#133 = ORIENTED_EDGE ( 'NONE', *, *, #218, .T. ) ;
#134 = CARTESIAN_POINT ( 'NONE',  ( 2.433562493173664138E-13, -7.316389877191761450E-15, 69.70000000000001705 ) ) ;
#135 = CARTESIAN_POINT ( 'NONE',  ( 3.616058254137767291E-14, 6.035842596065830172E-15, 10.35680246635919843 ) ) ;
#136 = AXIS2_PLACEMENT_3D ( 'NONE', #118, #200, #117 ) ;
#137 = CARTESIAN_POINT ( 'NONE',  ( -1.892735826383154569E-31, 1.774662432702592607, -5.421010862427522170E-17 ) ) ;
#138 = CYLINDRICAL_SURFACE ( 'NONE', #84, 1.499999999999995337 ) ;
#139 = ADVANCED_FACE ( 'NONE', ( #38, #243 ), #193, .T. ) ;
#140 = DIRECTION ( 'NONE',  ( -3.491481338843133355E-15, 1.049697256412017316E-16, -1.000000000000000000 ) ) ;
#141 = CARTESIAN_POINT ( 'NONE',  ( 2.433562493173664138E-13, -7.316389877191761450E-15, 69.70000000000001705 ) ) ;
#142 = PRODUCT_DEFINITION ( 'UNKNOWN', '', #103, #223 ) ;
#143 = APPROVAL_ROLE ( '' ) ;
#144 = PRODUCT_RELATED_PRODUCT_CATEGORY ( 'detail', '', ( #129 ) ) ;
#145 = DATE_AND_TIME ( #68, #16 ) ;
#146 = CIRCLE ( 'NONE', #136, 1.499999999999992673 ) ;
#147 = CARTESIAN_POINT ( 'NONE',  ( 3.616058254137767291E-14, 1.918999999999998929, 10.35680246635919843 ) ) ;
#148 = DIRECTION ( 'NONE',  ( 2.034800978082827507E-30, -1.000000000000000000, 5.827901628587933851E-16 ) ) ;
#149 = CARTESIAN_POINT ( 'NONE',  ( 3.616058254137766660E-14, -1.087150713413846247E-15, 10.35680246635919666 ) ) ;
#150 = AXIS2_PLACEMENT_3D ( 'NONE', #9, #213, #44 ) ;
#151 = ORIENTED_EDGE ( 'NONE', *, *, #56, .T. ) ;
#152 = EDGE_LOOP ( 'NONE', ( #151 ) ) ;
#153 = APPLICATION_CONTEXT ( 'configuration controlled 3d designs of mechanical parts and assemblies' ) ;
#154 = FACE_OUTER_BOUND ( 'NONE', #31, .T. ) ;
#155 = DIRECTION ( 'NONE',  ( -3.491481338843133355E-15, 1.049697256412017316E-16, -1.000000000000000000 ) ) ;
#156 = LOCAL_TIME ( 14, 2, 11.00000000000000000, #158 ) ;
#157 = CALENDAR_DATE ( 2021, 26, 11 ) ;
#158 = COORDINATED_UNIVERSAL_TIME_OFFSET ( 1, 0, .AHEAD. ) ;
#159 = AXIS2_PLACEMENT_3D ( 'NONE', #90, #170, #1 ) ;
#160 = APPLICATION_PROTOCOL_DEFINITION ( 'international standard', 'config_control_design', 1994, #153 ) ;
#161 = ORIENTED_EDGE ( 'NONE', *, *, #49, .F. ) ;
#162 = ADVANCED_FACE ( 'NONE', ( #60, #195 ), #138, .T. ) ;
#163 = APPROVAL_DATE_TIME ( #65, #80 ) ;
#164 = APPROVAL_DATE_TIME ( #14, #8 ) ;
#165 = AXIS2_PLACEMENT_3D ( 'NONE', #22, #46, #98 ) ;
#166 = FACE_OUTER_BOUND ( 'NONE', #168, .T. ) ;
#167 = AXIS2_PLACEMENT_3D ( 'NONE', #41, #169, #116 ) ;
#168 = EDGE_LOOP ( 'NONE', ( #161 ) ) ;
#169 = DIRECTION ( 'NONE',  ( 3.491481338843133355E-15, -1.049697256412017316E-16, 1.000000000000000000 ) ) ;
#170 = DIRECTION ( 'NONE',  ( -3.491481338843133355E-15, 1.049697256412017316E-16, -1.000000000000000000 ) ) ;
#171 = CONICAL_SURFACE ( 'NONE', #150, 1.774662432702592607, 0.5235987755982969283 ) ;
#172 = ADVANCED_FACE ( 'NONE', ( #196, #194 ), #171, .T. ) ;
#173 = DIRECTION ( 'NONE',  ( -3.491481338843133355E-15, -5.827901628587933851E-16, -1.000000000000000000 ) ) ;
#174 =( LENGTH_UNIT ( ) NAMED_UNIT ( * ) SI_UNIT ( .MILLI., .METRE. ) );
#175 = VERTEX_POINT ( 'NONE', #137 ) ;
#176 = ORGANIZATION ( 'UNSPECIFIED', 'UNSPECIFIED', '' ) ;
#177 = CC_DESIGN_APPROVAL ( #8, ( #21 ) ) ;
#178 = VERTEX_POINT ( 'NONE', #179 ) ;
#179 = CARTESIAN_POINT ( 'NONE',  ( 2.433562493173664138E-13, 1.499999999999990230, 69.70000000000001705 ) ) ;
#180 = AXIS2_PLACEMENT_3D ( 'NONE', #4, #225, #228 ) ;
#181 = CC_DESIGN_APPROVAL ( #80, ( #103 ) ) ;
#182 = SECURITY_CLASSIFICATION_LEVEL ( 'unclassified' ) ;
#183 = APPROVAL_STATUS ( 'not_yet_approved' ) ;
#184 = APPROVAL_ROLE ( '' ) ;
#185 = EDGE_LOOP ( 'NONE', ( #192 ) ) ;
#186 = PERSON_AND_ORGANIZATION_ROLE ( 'creator' ) ;
#187 = PERSON_AND_ORGANIZATION ( #83, #176 ) ;
#188 = DIRECTION ( 'NONE',  ( -2.007222453764707840E-30, 1.000000000000000000, -5.932320380978532310E-16 ) ) ;
#189 = ORIENTED_EDGE ( 'NONE', *, *, #86, .T. ) ;
#190 = ORIENTED_EDGE ( 'NONE', *, *, #49, .T. ) ;
#191 = CC_DESIGN_DATE_AND_TIME_ASSIGNMENT ( #64, #222, ( #21 ) ) ;
#192 = ORIENTED_EDGE ( 'NONE', *, *, #92, .F. ) ;
#193 = CONICAL_SURFACE ( 'NONE', #102, 1.499999999999997558, 0.7853981633974573828 ) ;
#194 = FACE_BOUND ( 'NONE', #67, .T. ) ;
#195 = FACE_OUTER_BOUND ( 'NONE', #11, .T. ) ;
#196 = FACE_OUTER_BOUND ( 'NONE', #112, .T. ) ;
#197 = AXIS2_PLACEMENT_3D ( 'NONE', #135, #89, #148 ) ;
#198 = CC_DESIGN_SECURITY_CLASSIFICATION ( #21, ( #103 ) ) ;
#199 = CARTESIAN_POINT ( 'NONE',  ( 3.616058254137766660E-14, 1.918999999999998929, 10.35680246635919666 ) ) ;
#200 = DIRECTION ( 'NONE',  ( -3.491481338843133355E-15, 1.049697256412017316E-16, -1.000000000000000000 ) ) ;
#201 = ORIENTED_EDGE ( 'NONE', *, *, #52, .T. ) ;
#202 = APPROVAL_DATE_TIME ( #48, #210 ) ;
#203 = APPROVAL_ROLE ( '' ) ;
#204 = LOCAL_TIME ( 14, 2, 11.00000000000000000, #239 ) ;
#205 = ORIENTED_EDGE ( 'NONE', *, *, #92, .T. ) ;
#206 = EDGE_CURVE ( 'NONE', #100, #100, #124, .T. ) ;
#207 = ORIENTED_EDGE ( 'NONE', *, *, #218, .F. ) ;
#208 = CARTESIAN_POINT ( 'NONE',  ( -1.900179218234201009E-30, 1.774662432702592607, -5.442329583992007834E-16 ) ) ;
#209 = PLANE ( 'NONE',  #232 ) ;
#210 = APPROVAL ( #50, 'UNSPECIFIED' ) ;
#211 = CARTESIAN_POINT ( 'NONE',  ( 3.616058254137767291E-14, 6.035842596065830172E-15, 10.35680246635919843 ) ) ;
#212 = APPLICATION_CONTEXT ( 'configuration controlled 3d designs of mechanical parts and assemblies' ) ;
#213 = DIRECTION ( 'NONE',  ( 3.491481338843133355E-15, 5.827901628587933851E-16, 1.000000000000000000 ) ) ;
#214 = VERTEX_POINT ( 'NONE', #24 ) ;
#215 = CLOSED_SHELL ( 'NONE', ( #121, #235, #172, #104 ) ) ;
#216 = CC_DESIGN_APPROVAL ( #210, ( #142 ) ) ;
#217 = CARTESIAN_POINT ( 'NONE',  ( 3.869445280877825814E-14, 1.499999999999991562, 11.08253175473057794 ) ) ;
#218 = EDGE_CURVE ( 'NONE', #59, #59, #146, .T. ) ;
#219 = DIRECTION ( 'NONE',  ( 0.0000000000000000000, 1.000000000000000000, 0.0000000000000000000 ) ) ;
#220 = EDGE_LOOP ( 'NONE', ( #189 ) ) ;
#221 = UNCERTAINTY_MEASURE_WITH_UNIT (LENGTH_MEASURE( 1.000000000000000082E-05 ), #174, 'distance_accuracy_value', 'NONE');
#222 = DATE_TIME_ROLE ( 'classification_date' ) ;
#223 = DESIGN_CONTEXT ( 'detailed design', #153, 'design' ) ;
#224 = DIRECTION ( 'NONE',  ( -3.491481338843133355E-15, 1.049697256412017316E-16, -1.000000000000000000 ) ) ;
#225 = DIRECTION ( 'NONE',  ( -3.491481338843133355E-15, -5.827901628587933851E-16, -1.000000000000000000 ) ) ;
#226 = CC_DESIGN_DATE_AND_TIME_ASSIGNMENT ( #145, #126, ( #142 ) ) ;
#227 = AXIS2_PLACEMENT_3D ( 'NONE', #95, #113, #229 ) ;
#228 = DIRECTION ( 'NONE',  ( -2.034800978082827507E-30, 1.000000000000000000, -5.827901628587933851E-16 ) ) ;
#229 = DIRECTION ( 'NONE',  ( 0.0000000000000000000, 1.000000000000000000, 0.0000000000000000000 ) ) ;
#230 = EDGE_LOOP ( 'NONE', ( #54 ) ) ;
#231 = DIRECTION ( 'NONE',  ( 0.0000000000000000000, 0.0000000000000000000, 1.000000000000000000 ) ) ;
#232 = AXIS2_PLACEMENT_3D ( 'NONE', #208, #78, #77 ) ;
#233 = APPLICATION_PROTOCOL_DEFINITION ( 'international standard', 'config_control_design', 1994, #212 ) ;
#234 = CARTESIAN_POINT ( 'NONE',  ( 2.444036937190193601E-13, 1.199999999999990186, 70.00000000000000000 ) ) ;
#235 = ADVANCED_FACE ( 'NONE', ( #154, #120 ), #45, .T. ) ;
#236 = CARTESIAN_POINT ( 'NONE',  ( 0.0000000000000000000, 0.0000000000000000000, 0.0000000000000000000 ) ) ;
#237 = MECHANICAL_CONTEXT ( 'NONE', #212, 'mechanical' ) ;
#238 = PERSON_AND_ORGANIZATION ( #83, #176 ) ;
#239 = COORDINATED_UNIVERSAL_TIME_OFFSET ( 1, 0, .AHEAD. ) ;
#240 = EDGE_LOOP ( 'NONE', ( #205 ) ) ;
#241 = PERSON_AND_ORGANIZATION ( #83, #176 ) ;
#242 = SHAPE_DEFINITION_REPRESENTATION ( #74, #23 ) ;
#243 = FACE_OUTER_BOUND ( 'NONE', #36, .T. ) ;
ENDSEC;
END-ISO-10303-21;
