ISO-10303-21;
HEADER;
FILE_DESCRIPTION (( 'STEP AP203' ),
    '1' );
FILE_NAME ('321286.step',
    '2021-11-26T13:02:10',
    ( '' ),
    ( '' ),
    'SwSTEP 2.0',
    'SolidWorks 2019',
    '' );
FILE_SCHEMA (( 'CONFIG_CONTROL_DESIGN' ));
ENDSEC;

DATA;
#1 = DIRECTION ( 'NONE',  ( 2.032386435541828652E-30, -1.000000000000000000, 5.820986103896058642E-16 ) ) ;
#2 = ADVANCED_FACE ( 'NONE', ( #30, #224 ), #167, .T. ) ;
#3 = DIRECTION ( 'NONE',  ( 3.491481338843133355E-15, -1.049697256412017316E-16, 1.000000000000000000 ) ) ;
#4 = APPROVAL_ROLE ( '' ) ;
#5 = PLANE ( 'NONE',  #236 ) ;
#6 = CARTESIAN_POINT ( 'NONE',  ( 2.444036937190193601E-13, -7.347880794884121511E-15, 70.00000000000000000 ) ) ;
#7 = LOCAL_TIME ( 14, 2, 10.00000000000000000, #58 ) ;
#8 = PERSON_AND_ORGANIZATION ( #12, #108 ) ;
#9 = ORIENTED_EDGE ( 'NONE', *, *, #188, .T. ) ;
#10 = PRODUCT_DEFINITION_FORMATION_WITH_SPECIFIED_SOURCE ( 'ANY', '', #67, .NOT_KNOWN. ) ;
#11 = ORIENTED_EDGE ( 'NONE', *, *, #142, .T. ) ;
#12 = PERSON ( 'UNSPECIFIED', 'UNSPECIFIED', 'UNSPECIFIED', ('UNSPECIFIED'), ('UNSPECIFIED'), ('UNSPECIFIED') ) ;
#13 = CARTESIAN_POINT ( 'NONE',  ( 2.433562493173664138E-13, -7.316389877191761450E-15, 69.70000000000001705 ) ) ;
#14 = EDGE_LOOP ( 'NONE', ( #70 ) ) ;
#15 = AXIS2_PLACEMENT_3D ( 'NONE', #112, #51, #175 ) ;
#16 = FACE_OUTER_BOUND ( 'NONE', #64, .T. ) ;
#17 = CARTESIAN_POINT ( 'NONE',  ( 2.444036937190193601E-13, 1.199999999999990186, 70.00000000000000000 ) ) ;
#18 = DIRECTION ( 'NONE',  ( -3.491481338843133355E-15, 1.049697256412017316E-16, -1.000000000000000000 ) ) ;
#19 = CC_DESIGN_APPROVAL ( #55, ( #166 ) ) ;
#20 = CALENDAR_DATE ( 2021, 26, 11 ) ;
#21 = CARTESIAN_POINT ( 'NONE',  ( 3.869445280877825814E-14, -1.163330317703974832E-15, 11.08253175473057794 ) ) ;
#22 = DIRECTION ( 'NONE',  ( -3.491481338843133355E-15, -5.820986103896058642E-16, -1.000000000000000000 ) ) ;
#23 = CALENDAR_DATE ( 2021, 26, 11 ) ;
#24 = DATE_AND_TIME ( #197, #144 ) ;
#25 = APPLICATION_CONTEXT ( 'configuration controlled 3d designs of mechanical parts and assemblies' ) ;
#26 = CC_DESIGN_APPROVAL ( #81, ( #39 ) ) ;
#27 = EDGE_LOOP ( 'NONE', ( #181 ) ) ;
#28 = PLANE ( 'NONE',  #63 ) ;
#29 = CYLINDRICAL_SURFACE ( 'NONE', #242, 1.499999999999995337 ) ;
#30 = FACE_OUTER_BOUND ( 'NONE', #14, .T. ) ;
#31 = CARTESIAN_POINT ( 'NONE',  ( 3.619081965674044795E-14, 1.913999999999998591, 10.36546272039704064 ) ) ;
#32 = COORDINATED_UNIVERSAL_TIME_OFFSET ( 1, 0, .AHEAD. ) ;
#33 = DIRECTION ( 'NONE',  ( 0.0000000000000000000, 1.000000000000000000, 0.0000000000000000000 ) ) ;
#34 = CIRCLE ( 'NONE', #227, 1.913999999999999702 ) ;
#35 = VERTEX_POINT ( 'NONE', #208 ) ;
#36 = CC_DESIGN_PERSON_AND_ORGANIZATION_ASSIGNMENT ( #214, #119, ( #10 ) ) ;
#37 = COORDINATED_UNIVERSAL_TIME_OFFSET ( 1, 0, .AHEAD. ) ;
#38 = APPROVAL_DATE_TIME ( #180, #48 ) ;
#39 = SECURITY_CLASSIFICATION ( '', '', #143 ) ;
#40 = CALENDAR_DATE ( 2021, 26, 11 ) ;
#41 = CC_DESIGN_PERSON_AND_ORGANIZATION_ASSIGNMENT ( #8, #159, ( #67 ) ) ;
#42 = APPROVAL_ROLE ( '' ) ;
#43 = PERSON_AND_ORGANIZATION ( #12, #108 ) ;
#44 = ORIENTED_EDGE ( 'NONE', *, *, #128, .F. ) ;
#45 = DIRECTION ( 'NONE',  ( -2.032386435541828652E-30, 1.000000000000000000, -5.820986103896058642E-16 ) ) ;
#46 = EDGE_LOOP ( 'NONE', ( #200 ) ) ;
#47 = EDGE_LOOP ( 'NONE', ( #168 ) ) ;
#48 = APPROVAL ( #117, 'UNSPECIFIED' ) ;
#49 = CIRCLE ( 'NONE', #156, 1.913999999999998369 ) ;
#50 = DIRECTION ( 'NONE',  ( -3.491481338843133355E-15, 1.049697256412017316E-16, -1.000000000000000000 ) ) ;
#51 = DIRECTION ( 'NONE',  ( -3.491481338843133355E-15, 1.049697256412017316E-16, -1.000000000000000000 ) ) ;
#52 = CARTESIAN_POINT ( 'NONE',  ( 3.619081965674044795E-14, -1.088059777904181971E-15, 10.36546272039704064 ) ) ;
#53 = DIRECTION ( 'NONE',  ( -2.032386435541828652E-30, 1.000000000000000000, -5.820986103896059628E-16 ) ) ;
#54 = CIRCLE ( 'NONE', #69, 1.199999999999997513 ) ;
#55 = APPROVAL ( #160, 'UNSPECIFIED' ) ;
#56 = CARTESIAN_POINT ( 'NONE',  ( 0.0000000000000000000, 0.0000000000000000000, 0.0000000000000000000 ) ) ;
#57 = APPROVAL_DATE_TIME ( #177, #81 ) ;
#58 = COORDINATED_UNIVERSAL_TIME_OFFSET ( 1, 0, .AHEAD. ) ;
#59 = DATE_AND_TIME ( #40, #7 ) ;
#60 = APPROVAL_PERSON_ORGANIZATION ( #43, #48, #42 ) ;
#61 = MECHANICAL_CONTEXT ( 'NONE', #25, 'mechanical' ) ;
#62 = PERSON_AND_ORGANIZATION_ROLE ( 'creator' ) ;
#63 = AXIS2_PLACEMENT_3D ( 'NONE', #105, #163, #45 ) ;
#64 = EDGE_LOOP ( 'NONE', ( #183 ) ) ;
#65 = MANIFOLD_SOLID_BREP ( 'Corps-Déplacer/Copier1[1]', #124 ) ;
#66 = DIRECTION ( 'NONE',  ( -3.491481338843133355E-15, 1.049697256412017316E-16, -1.000000000000000000 ) ) ;
#67 = PRODUCT ( '321286', '321286', '', ( #61 ) ) ;
#68 = FACE_OUTER_BOUND ( 'NONE', #84, .T. ) ;
#69 = AXIS2_PLACEMENT_3D ( 'NONE', #209, #230, #33 ) ;
#70 = ORIENTED_EDGE ( 'NONE', *, *, #128, .T. ) ;
#71 = MANIFOLD_SOLID_BREP ( 'Corps-Déplacer/Copier1[2]', #215 ) ;
#72 = DIRECTION ( 'NONE',  ( -3.491481338843133355E-15, -5.820986103896058642E-16, -1.000000000000000000 ) ) ;
#73 = APPROVAL_PERSON_ORGANIZATION ( #233, #81, #4 ) ;
#74 = DIRECTION ( 'NONE',  ( 0.0000000000000000000, 1.000000000000000000, 0.0000000000000000000 ) ) ;
#75 = DIRECTION ( 'NONE',  ( 3.664998382197393967E-31, 1.000000000000000000, 1.049697256412017316E-16 ) ) ;
#76 = DIRECTION ( 'NONE',  ( -3.491481338843133355E-15, -5.820986103896058642E-16, -1.000000000000000000 ) ) ;
#77 = CONICAL_SURFACE ( 'NONE', #164, 1.913999999999999702, 0.5235987755982932645 ) ;
#78 = PERSON_AND_ORGANIZATION ( #12, #108 ) ;
#79 = CC_DESIGN_APPROVAL ( #48, ( #10 ) ) ;
#80 =( NAMED_UNIT ( * ) SI_UNIT ( $, .STERADIAN. ) SOLID_ANGLE_UNIT ( ) );
#81 = APPROVAL ( #155, 'UNSPECIFIED' ) ;
#82 = PLANE ( 'NONE',  #172 ) ;
#83 = CIRCLE ( 'NONE', #191, 1.913999999999992596 ) ;
#84 = EDGE_LOOP ( 'NONE', ( #11 ) ) ;
#85 = CC_DESIGN_PERSON_AND_ORGANIZATION_ASSIGNMENT ( #235, #123, ( #39 ) ) ;
#86 = CARTESIAN_POINT ( 'NONE',  ( 3.619081965674044164E-14, 1.913999999999998591, 10.36546272039703886 ) ) ;
#87 = ADVANCED_BREP_SHAPE_REPRESENTATION ( '321286', ( #65, #71, #107 ), #186 ) ;
#88 = EDGE_LOOP ( 'NONE', ( #150 ) ) ;
#89 = DIRECTION ( 'NONE',  ( 3.491481338843133355E-15, 5.820986103896058642E-16, 1.000000000000000000 ) ) ;
#90 = PRODUCT_DEFINITION_SHAPE ( 'NONE', 'NONE',  #166 ) ;
#91 = VERTEX_POINT ( 'NONE', #171 ) ;
#92 = CIRCLE ( 'NONE', #15, 1.499999999999997558 ) ;
#93 = DIRECTION ( 'NONE',  ( -2.012465981595859365E-30, 1.000000000000000000, -5.947817560657161293E-16 ) ) ;
#94 = ADVANCED_FACE ( 'NONE', ( #225, #240 ), #202, .T. ) ;
#95 = DIRECTION ( 'NONE',  ( -3.491481338843133355E-15, -5.820986103896058642E-16, -1.000000000000000000 ) ) ;
#96 = PLANE ( 'NONE',  #220 ) ;
#97 = CALENDAR_DATE ( 2021, 26, 11 ) ;
#98 = AXIS2_PLACEMENT_3D ( 'NONE', #165, #89, #201 ) ;
#99 = CC_DESIGN_PERSON_AND_ORGANIZATION_ASSIGNMENT ( #218, #62, ( #166 ) ) ;
#100 = APPLICATION_CONTEXT ( 'configuration controlled 3d designs of mechanical parts and assemblies' ) ;
#101 = ORIENTED_EDGE ( 'NONE', *, *, #176, .F. ) ;
#102 = ADVANCED_FACE ( 'NONE', ( #68 ), #82, .T. ) ;
#103 = LOCAL_TIME ( 14, 2, 10.00000000000000000, #138 ) ;
#104 = EDGE_LOOP ( 'NONE', ( #241 ) ) ;
#105 = CARTESIAN_POINT ( 'NONE',  ( -1.892955753175509554E-30, 1.769662432702592492, -5.421640757795718453E-16 ) ) ;
#106 = CARTESIAN_POINT ( 'NONE',  ( 0.0000000000000000000, 0.0000000000000000000, 0.0000000000000000000 ) ) ;
#107 = AXIS2_PLACEMENT_3D ( 'NONE', #238, #179, #216 ) ;
#108 = ORGANIZATION ( 'UNSPECIFIED', 'UNSPECIFIED', '' ) ;
#109 = CC_DESIGN_PERSON_AND_ORGANIZATION_ASSIGNMENT ( #78, #194, ( #10 ) ) ;
#110 = VERTEX_POINT ( 'NONE', #17 ) ;
#111 = CARTESIAN_POINT ( 'NONE',  ( -1.892735826383168144E-31, 1.769662432702592492, -5.421010862427522170E-17 ) ) ;
#112 = CARTESIAN_POINT ( 'NONE',  ( 2.433562493173664138E-13, -7.316389877191761450E-15, 69.70000000000001705 ) ) ;
#113 = ADVANCED_FACE ( 'NONE', ( #222 ), #28, .T. ) ;
#114 = AXIS2_PLACEMENT_3D ( 'NONE', #56, #22, #53 ) ;
#115 = CARTESIAN_POINT ( 'NONE',  ( 3.619081965674044795E-14, -1.088059777904181971E-15, 10.36546272039704064 ) ) ;
#116 = VERTEX_POINT ( 'NONE', #111 ) ;
#117 = APPROVAL_STATUS ( 'not_yet_approved' ) ;
#118 = DATE_TIME_ROLE ( 'classification_date' ) ;
#119 = PERSON_AND_ORGANIZATION_ROLE ( 'creator' ) ;
#120 = APPROVAL_PERSON_ORGANIZATION ( #234, #55, #141 ) ;
#121 = APPLICATION_PROTOCOL_DEFINITION ( 'international standard', 'config_control_design', 1994, #100 ) ;
#122 = ADVANCED_FACE ( 'NONE', ( #204, #239 ), #29, .T. ) ;
#123 = PERSON_AND_ORGANIZATION_ROLE ( 'classification_officer' ) ;
#124 = CLOSED_SHELL ( 'NONE', ( #137, #94, #122, #158, #102 ) ) ;
#125 = CC_DESIGN_DATE_AND_TIME_ASSIGNMENT ( #139, #118, ( #39 ) ) ;
#126 = DIRECTION ( 'NONE',  ( -3.491481338843133355E-15, 1.049697256412017316E-16, -1.000000000000000000 ) ) ;
#127 = ORIENTED_EDGE ( 'NONE', *, *, #170, .F. ) ;
#128 = EDGE_CURVE ( 'NONE', #190, #190, #49, .T. ) ;
#129 = EDGE_LOOP ( 'NONE', ( #44 ) ) ;
#130 = AXIS2_PLACEMENT_3D ( 'NONE', #173, #76, #226 ) ;
#131 = DIRECTION ( 'NONE',  ( -3.664998382197393967E-31, -1.000000000000000000, -1.049697256412017316E-16 ) ) ;
#132 = DIRECTION ( 'NONE',  ( -3.219945570553384793E-30, 1.000000000000000000, -9.063341044810939306E-16 ) ) ;
#133 = CIRCLE ( 'NONE', #130, 1.769662432702592492 ) ;
#134 = CARTESIAN_POINT ( 'NONE',  ( 8.728703347107835360E-16, 1.913999999999998591, 0.2500000000000000000 ) ) ;
#135 = CARTESIAN_POINT ( 'NONE',  ( 8.728703347107873817E-16, 1.455246525974021317E-16, 0.2500000000000011657 ) ) ;
#136 = SHAPE_DEFINITION_REPRESENTATION ( #90, #87 ) ;
#137 = ADVANCED_FACE ( 'NONE', ( #169 ), #96, .T. ) ;
#138 = COORDINATED_UNIVERSAL_TIME_OFFSET ( 1, 0, .AHEAD. ) ;
#139 = DATE_AND_TIME ( #23, #182 ) ;
#140 = LOCAL_TIME ( 14, 2, 10.00000000000000000, #32 ) ;
#141 = APPROVAL_ROLE ( '' ) ;
#142 = EDGE_CURVE ( 'NONE', #189, #189, #34, .T. ) ;
#143 = SECURITY_CLASSIFICATION_LEVEL ( 'unclassified' ) ;
#144 = LOCAL_TIME ( 14, 2, 10.00000000000000000, #162 ) ;
#145 = ORIENTED_EDGE ( 'NONE', *, *, #188, .F. ) ;
#146 = EDGE_LOOP ( 'NONE', ( #101 ) ) ;
#147 = DIRECTION ( 'NONE',  ( 3.664998382197393967E-31, 1.000000000000000000, 1.049697256412017316E-16 ) ) ;
#148 = EDGE_LOOP ( 'NONE', ( #223 ) ) ;
#149 = ADVANCED_FACE ( 'NONE', ( #16 ), #5, .T. ) ;
#150 = ORIENTED_EDGE ( 'NONE', *, *, #170, .T. ) ;
#151 = DIRECTION ( 'NONE',  ( 0.0000000000000000000, 1.000000000000000000, 0.0000000000000000000 ) ) ;
#152 =( LENGTH_UNIT ( ) NAMED_UNIT ( * ) SI_UNIT ( .MILLI., .METRE. ) );
#153 = DIRECTION ( 'NONE',  ( -3.491481338843133355E-15, 1.049697256412017316E-16, -1.000000000000000000 ) ) ;
#154 = DIRECTION ( 'NONE',  ( 0.0000000000000000000, 1.000000000000000000, 0.0000000000000000000 ) ) ;
#155 = APPROVAL_STATUS ( 'not_yet_approved' ) ;
#156 = AXIS2_PLACEMENT_3D ( 'NONE', #135, #72, #93 ) ;
#157 = FACE_OUTER_BOUND ( 'NONE', #27, .T. ) ;
#158 = ADVANCED_FACE ( 'NONE', ( #211, #192 ), #77, .T. ) ;
#159 = PERSON_AND_ORGANIZATION_ROLE ( 'design_owner' ) ;
#160 = APPROVAL_STATUS ( 'not_yet_approved' ) ;
#161 = CC_DESIGN_SECURITY_CLASSIFICATION ( #39, ( #10 ) ) ;
#162 = COORDINATED_UNIVERSAL_TIME_OFFSET ( 1, 0, .AHEAD. ) ;
#163 = DIRECTION ( 'NONE',  ( -3.491481338843133355E-15, -5.820986103896058642E-16, -1.000000000000000000 ) ) ;
#164 = AXIS2_PLACEMENT_3D ( 'NONE', #52, #153, #151 ) ;
#165 = CARTESIAN_POINT ( 'NONE',  ( 3.407364341074386180E-30, 5.680746524303870347E-31, 9.759079343105932473E-16 ) ) ;
#166 = PRODUCT_DEFINITION ( 'UNKNOWN', '', #10, #198 ) ;
#167 = CONICAL_SURFACE ( 'NONE', #98, 1.769662432702592492, 0.5235987755982969283 ) ;
#168 = ORIENTED_EDGE ( 'NONE', *, *, #176, .T. ) ;
#169 = FACE_OUTER_BOUND ( 'NONE', #46, .T. ) ;
#170 = EDGE_CURVE ( 'NONE', #35, #35, #210, .T. ) ;
#171 = CARTESIAN_POINT ( 'NONE',  ( 3.619081965674044795E-14, 1.913999999999998591, 10.36546272039704064 ) ) ;
#172 = AXIS2_PLACEMENT_3D ( 'NONE', #86, #66, #147 ) ;
#173 = CARTESIAN_POINT ( 'NONE',  ( 3.407364341074386180E-30, 5.680746524303870347E-31, 9.759079343105932473E-16 ) ) ;
#174 = DIRECTION ( 'NONE',  ( 3.491481338843133355E-15, 5.820986103896058642E-16, 1.000000000000000000 ) ) ;
#175 = DIRECTION ( 'NONE',  ( 0.0000000000000000000, 1.000000000000000000, 0.0000000000000000000 ) ) ;
#176 = EDGE_CURVE ( 'NONE', #116, #116, #133, .T. ) ;
#177 = DATE_AND_TIME ( #20, #140 ) ;
#178 = CC_DESIGN_DATE_AND_TIME_ASSIGNMENT ( #24, #196, ( #166 ) ) ;
#179 = DIRECTION ( 'NONE',  ( 0.0000000000000000000, 0.0000000000000000000, 1.000000000000000000 ) ) ;
#180 = DATE_AND_TIME ( #97, #103 ) ;
#181 = ORIENTED_EDGE ( 'NONE', *, *, #203, .T. ) ;
#182 = LOCAL_TIME ( 14, 2, 10.00000000000000000, #37 ) ;
#183 = ORIENTED_EDGE ( 'NONE', *, *, #203, .F. ) ;
#184 = PRODUCT_RELATED_PRODUCT_CATEGORY ( 'detail', '', ( #67 ) ) ;
#185 = EDGE_LOOP ( 'NONE', ( #9 ) ) ;
#186 =( GEOMETRIC_REPRESENTATION_CONTEXT ( 3 ) GLOBAL_UNCERTAINTY_ASSIGNED_CONTEXT ( ( #219 ) ) GLOBAL_UNIT_ASSIGNED_CONTEXT ( ( #152, #237, #80 ) ) REPRESENTATION_CONTEXT ( 'NONE', 'WORKASPACE' ) );
#187 = CYLINDRICAL_SURFACE ( 'NONE', #114, 1.913999999999995483 ) ;
#188 = EDGE_CURVE ( 'NONE', #212, #212, #92, .T. ) ;
#189 = VERTEX_POINT ( 'NONE', #31 ) ;
#190 = VERTEX_POINT ( 'NONE', #134 ) ;
#191 = AXIS2_PLACEMENT_3D ( 'NONE', #228, #95, #132 ) ;
#192 = FACE_OUTER_BOUND ( 'NONE', #148, .T. ) ;
#193 = CARTESIAN_POINT ( 'NONE',  ( 2.433562493173664138E-13, 1.499999999999990230, 69.70000000000001705 ) ) ;
#194 = PERSON_AND_ORGANIZATION_ROLE ( 'design_supplier' ) ;
#195 = APPROVAL_DATE_TIME ( #59, #55 ) ;
#196 = DATE_TIME_ROLE ( 'creation_date' ) ;
#197 = CALENDAR_DATE ( 2021, 26, 11 ) ;
#198 = DESIGN_CONTEXT ( 'detailed design', #100, 'design' ) ;
#199 = EDGE_CURVE ( 'NONE', #110, #110, #54, .T. ) ;
#200 = ORIENTED_EDGE ( 'NONE', *, *, #199, .F. ) ;
#201 = DIRECTION ( 'NONE',  ( 2.032386435541828652E-30, -1.000000000000000000, 5.820986103896058642E-16 ) ) ;
#202 = CONICAL_SURFACE ( 'NONE', #231, 1.499999999999997558, 0.7853981633974573828 ) ;
#203 = EDGE_CURVE ( 'NONE', #91, #91, #83, .T. ) ;
#204 = FACE_OUTER_BOUND ( 'NONE', #185, .T. ) ;
#205 = EDGE_LOOP ( 'NONE', ( #145 ) ) ;
#206 = AXIS2_PLACEMENT_3D ( 'NONE', #21, #232, #154 ) ;
#207 = FACE_OUTER_BOUND ( 'NONE', #129, .T. ) ;
#208 = CARTESIAN_POINT ( 'NONE',  ( 3.869445280877825814E-14, 1.499999999999991562, 11.08253175473057794 ) ) ;
#209 = CARTESIAN_POINT ( 'NONE',  ( 2.444036937190193601E-13, -7.347880794884121511E-15, 70.00000000000000000 ) ) ;
#210 = CIRCLE ( 'NONE', #206, 1.499999999999992673 ) ;
#211 = FACE_BOUND ( 'NONE', #88, .T. ) ;
#212 = VERTEX_POINT ( 'NONE', #193 ) ;
#213 = ADVANCED_FACE ( 'NONE', ( #157, #207 ), #187, .T. ) ;
#214 = PERSON_AND_ORGANIZATION ( #12, #108 ) ;
#215 = CLOSED_SHELL ( 'NONE', ( #149, #213, #2, #113 ) ) ;
#216 = DIRECTION ( 'NONE',  ( 1.000000000000000000, 0.0000000000000000000, 0.0000000000000000000 ) ) ;
#217 = APPLICATION_PROTOCOL_DEFINITION ( 'international standard', 'config_control_design', 1994, #25 ) ;
#218 = PERSON_AND_ORGANIZATION ( #12, #108 ) ;
#219 = UNCERTAINTY_MEASURE_WITH_UNIT (LENGTH_MEASURE( 1.000000000000000082E-05 ), #152, 'distance_accuracy_value', 'NONE');
#220 = AXIS2_PLACEMENT_3D ( 'NONE', #6, #3, #131 ) ;
#221 = EDGE_LOOP ( 'NONE', ( #127 ) ) ;
#222 = FACE_OUTER_BOUND ( 'NONE', #47, .T. ) ;
#223 = ORIENTED_EDGE ( 'NONE', *, *, #142, .F. ) ;
#224 = FACE_BOUND ( 'NONE', #146, .T. ) ;
#225 = FACE_BOUND ( 'NONE', #104, .T. ) ;
#226 = DIRECTION ( 'NONE',  ( -2.032386435541828652E-30, 1.000000000000000000, -5.820986103896058642E-16 ) ) ;
#227 = AXIS2_PLACEMENT_3D ( 'NONE', #115, #18, #74 ) ;
#228 = CARTESIAN_POINT ( 'NONE',  ( 3.619081965674045426E-14, 6.033721445588382450E-15, 10.36546272039704242 ) ) ;
#229 = CARTESIAN_POINT ( 'NONE',  ( 3.619081965674044164E-14, 6.033721445588380083E-15, 10.36546272039703886 ) ) ;
#230 = DIRECTION ( 'NONE',  ( -3.491481338843133355E-15, 1.049697256412017316E-16, -1.000000000000000000 ) ) ;
#231 = AXIS2_PLACEMENT_3D ( 'NONE', #13, #126, #243 ) ;
#232 = DIRECTION ( 'NONE',  ( -3.491481338843133355E-15, 1.049697256412017316E-16, -1.000000000000000000 ) ) ;
#233 = PERSON_AND_ORGANIZATION ( #12, #108 ) ;
#234 = PERSON_AND_ORGANIZATION ( #12, #108 ) ;
#235 = PERSON_AND_ORGANIZATION ( #12, #108 ) ;
#236 = AXIS2_PLACEMENT_3D ( 'NONE', #229, #174, #1 ) ;
#237 =( NAMED_UNIT ( * ) PLANE_ANGLE_UNIT ( ) SI_UNIT ( $, .RADIAN. ) );
#238 = CARTESIAN_POINT ( 'NONE',  ( 0.0000000000000000000, 0.0000000000000000000, 0.0000000000000000000 ) ) ;
#239 = FACE_OUTER_BOUND ( 'NONE', #221, .T. ) ;
#240 = FACE_OUTER_BOUND ( 'NONE', #205, .T. ) ;
#241 = ORIENTED_EDGE ( 'NONE', *, *, #199, .T. ) ;
#242 = AXIS2_PLACEMENT_3D ( 'NONE', #106, #50, #75 ) ;
#243 = DIRECTION ( 'NONE',  ( 0.0000000000000000000, 1.000000000000000000, 0.0000000000000000000 ) ) ;
ENDSEC;
END-ISO-10303-21;
