ISO-10303-21;
HEADER;
FILE_DESCRIPTION (( 'STEP AP203' ),
    '1' );
FILE_NAME ('321285.step',
    '2021-11-26T13:02:09',
    ( '' ),
    ( '' ),
    'SwSTEP 2.0',
    'SolidWorks 2019',
    '' );
FILE_SCHEMA (( 'CONFIG_CONTROL_DESIGN' ));
ENDSEC;

DATA;
#1 = AXIS2_PLACEMENT_3D ( 'NONE', #81, #157, #199 ) ;
#2 = MANIFOLD_SOLID_BREP ( 'Corps-Déplacer/Copier1[1]', #113 ) ;
#3 = FACE_OUTER_BOUND ( 'NONE', #7, .T. ) ;
#4 = AXIS2_PLACEMENT_3D ( 'NONE', #71, #146, #217 ) ;
#5 = CARTESIAN_POINT ( 'NONE',  ( 3.622105677210322299E-14, 1.908999999999998698, 10.37412297443488463 ) ) ;
#6 = CARTESIAN_POINT ( 'NONE',  ( 3.869445280877825814E-14, -1.163330317703974832E-15, 11.08253175473057794 ) ) ;
#7 = EDGE_LOOP ( 'NONE', ( #10 ) ) ;
#8 = COORDINATED_UNIVERSAL_TIME_OFFSET ( 1, 0, .AHEAD. ) ;
#9 = PERSON_AND_ORGANIZATION ( #229, #83 ) ;
#10 = ORIENTED_EDGE ( 'NONE', *, *, #200, .F. ) ;
#11 = PERSON_AND_ORGANIZATION_ROLE ( 'creator' ) ;
#12 = DIRECTION ( 'NONE',  ( 3.491481338843133355E-15, -1.049697256412017316E-16, 1.000000000000000000 ) ) ;
#13 = CIRCLE ( 'NONE', #4, 1.764662432702592598 ) ;
#14 = ADVANCED_FACE ( 'NONE', ( #68 ), #126, .T. ) ;
#15 = CYLINDRICAL_SURFACE ( 'NONE', #228, 1.499999999999995337 ) ;
#16 = EDGE_LOOP ( 'NONE', ( #61 ) ) ;
#17 = ORIENTED_EDGE ( 'NONE', *, *, #144, .T. ) ;
#18 = CARTESIAN_POINT ( 'NONE',  ( 2.433562493173664138E-13, -7.316389877191761450E-15, 69.70000000000001705 ) ) ;
#19 = CARTESIAN_POINT ( 'NONE',  ( -1.885747917762989540E-30, 1.764662432702592598, -5.400996696685232119E-16 ) ) ;
#20 = ADVANCED_FACE ( 'NONE', ( #92, #219 ), #208, .T. ) ;
#21 = DATE_AND_TIME ( #197, #180 ) ;
#22 = ADVANCED_FACE ( 'NONE', ( #110, #34 ), #15, .T. ) ;
#23 = VERTEX_POINT ( 'NONE', #65 ) ;
#24 = CC_DESIGN_APPROVAL ( #240, ( #115 ) ) ;
#25 = ORIENTED_EDGE ( 'NONE', *, *, #52, .T. ) ;
#26 =( NAMED_UNIT ( * ) SI_UNIT ( $, .STERADIAN. ) SOLID_ANGLE_UNIT ( ) );
#27 = ORIENTED_EDGE ( 'NONE', *, *, #52, .F. ) ;
#28 = EDGE_CURVE ( 'NONE', #112, #112, #152, .T. ) ;
#29 = COORDINATED_UNIVERSAL_TIME_OFFSET ( 1, 0, .AHEAD. ) ;
#30 = CARTESIAN_POINT ( 'NONE',  ( 3.622105677210322931E-14, 6.031600295110932361E-15, 10.37412297443488640 ) ) ;
#31 = APPROVAL_STATUS ( 'not_yet_approved' ) ;
#32 = PRODUCT_RELATED_PRODUCT_CATEGORY ( 'detail', '', ( #212 ) ) ;
#33 = DIRECTION ( 'NONE',  ( -3.491481338843133355E-15, 1.049697256412017316E-16, -1.000000000000000000 ) ) ;
#34 = FACE_OUTER_BOUND ( 'NONE', #88, .T. ) ;
#35 = AXIS2_PLACEMENT_3D ( 'NONE', #48, #165, #185 ) ;
#36 = CARTESIAN_POINT ( 'NONE',  ( 2.444036937190193601E-13, -7.347880794884121511E-15, 70.00000000000000000 ) ) ;
#37 = ADVANCED_FACE ( 'NONE', ( #73 ), #149, .T. ) ;
#38 = CARTESIAN_POINT ( 'NONE',  ( 8.728703347107871845E-16, 1.453520531319786189E-16, 0.2500000000000011102 ) ) ;
#39 = LOCAL_TIME ( 14, 2, 9.000000000000000000, #188 ) ;
#40 = EDGE_CURVE ( 'NONE', #98, #98, #179, .T. ) ;
#41 = DIRECTION ( 'NONE',  ( -2.029975924291346787E-30, 1.000000000000000000, -5.814082125279119117E-16 ) ) ;
#42 = DIRECTION ( 'NONE',  ( 0.0000000000000000000, 1.000000000000000000, 0.0000000000000000000 ) ) ;
#43 = CONICAL_SURFACE ( 'NONE', #35, 1.764662432702592598, 0.5235987755982970393 ) ;
#44 = PERSON_AND_ORGANIZATION_ROLE ( 'classification_officer' ) ;
#45 = AXIS2_PLACEMENT_3D ( 'NONE', #19, #95, #41 ) ;
#46 = APPROVAL_ROLE ( '' ) ;
#47 = APPROVAL_STATUS ( 'not_yet_approved' ) ;
#48 = CARTESIAN_POINT ( 'NONE',  ( 3.392948670249346853E-30, 5.650003623454158904E-31, 9.717791220884959803E-16 ) ) ;
#49 = DIRECTION ( 'NONE',  ( 0.0000000000000000000, 1.000000000000000000, 0.0000000000000000000 ) ) ;
#50 = APPROVAL_DATE_TIME ( #96, #133 ) ;
#51 = DIRECTION ( 'NONE',  ( -3.491481338843133355E-15, 1.049697256412017316E-16, -1.000000000000000000 ) ) ;
#52 = EDGE_CURVE ( 'NONE', #131, #131, #129, .T. ) ;
#53 = CC_DESIGN_APPROVAL ( #133, ( #94 ) ) ;
#54 = CARTESIAN_POINT ( 'NONE',  ( 3.622105677210322299E-14, -1.088968842394517498E-15, 10.37412297443488463 ) ) ;
#55 = EDGE_LOOP ( 'NONE', ( #101 ) ) ;
#56 = CARTESIAN_POINT ( 'NONE',  ( 3.622105677210322931E-14, 6.031600295110932361E-15, 10.37412297443488640 ) ) ;
#57 = CONICAL_SURFACE ( 'NONE', #186, 1.499999999999997558, 0.7853981633974573828 ) ;
#58 = FACE_OUTER_BOUND ( 'NONE', #86, .T. ) ;
#59 = CARTESIAN_POINT ( 'NONE',  ( 3.622105677210322931E-14, 1.908999999999998698, 10.37412297443488640 ) ) ;
#60 = DIRECTION ( 'NONE',  ( -3.491481338843133355E-15, 1.049697256412017316E-16, -1.000000000000000000 ) ) ;
#61 = ORIENTED_EDGE ( 'NONE', *, *, #28, .T. ) ;
#62 = AXIS2_PLACEMENT_3D ( 'NONE', #56, #191, #204 ) ;
#63 = VERTEX_POINT ( 'NONE', #181 ) ;
#64 = APPROVAL_ROLE ( '' ) ;
#65 = CARTESIAN_POINT ( 'NONE',  ( 3.869445280877825814E-14, 1.499999999999991562, 11.08253175473057794 ) ) ;
#66 = CARTESIAN_POINT ( 'NONE',  ( 8.728703347107833388E-16, 1.908999999999998698, 0.2500000000000000000 ) ) ;
#67 = PERSON_AND_ORGANIZATION ( #229, #83 ) ;
#68 = FACE_OUTER_BOUND ( 'NONE', #202, .T. ) ;
#69 = DESIGN_CONTEXT ( 'detailed design', #136, 'design' ) ;
#70 = FACE_OUTER_BOUND ( 'NONE', #120, .T. ) ;
#71 = CARTESIAN_POINT ( 'NONE',  ( 3.392948670249346853E-30, 5.650003623454158904E-31, 9.717791220884959803E-16 ) ) ;
#72 = AXIS2_PLACEMENT_3D ( 'NONE', #216, #51, #123 ) ;
#73 = FACE_OUTER_BOUND ( 'NONE', #184, .T. ) ;
#74 = EDGE_LOOP ( 'NONE', ( #108 ) ) ;
#75 =( GEOMETRIC_REPRESENTATION_CONTEXT ( 3 ) GLOBAL_UNCERTAINTY_ASSIGNED_CONTEXT ( ( #164 ) ) GLOBAL_UNIT_ASSIGNED_CONTEXT ( ( #213, #159, #26 ) ) REPRESENTATION_CONTEXT ( 'NONE', 'WORKASPACE' ) );
#76 = SHAPE_DEFINITION_REPRESENTATION ( #135, #215 ) ;
#77 = FACE_OUTER_BOUND ( 'NONE', #16, .T. ) ;
#78 = EDGE_CURVE ( 'NONE', #111, #111, #13, .T. ) ;
#79 = MANIFOLD_SOLID_BREP ( 'Corps-Déplacer/Copier1[2]', #176 ) ;
#80 = EDGE_LOOP ( 'NONE', ( #201 ) ) ;
#81 = CARTESIAN_POINT ( 'NONE',  ( 0.0000000000000000000, 0.0000000000000000000, 0.0000000000000000000 ) ) ;
#82 = APPLICATION_CONTEXT ( 'configuration controlled 3d designs of mechanical parts and assemblies' ) ;
#83 = ORGANIZATION ( 'UNSPECIFIED', 'UNSPECIFIED', '' ) ;
#84 = PERSON_AND_ORGANIZATION_ROLE ( 'design_owner' ) ;
#85 = EDGE_CURVE ( 'NONE', #63, #63, #161, .T. ) ;
#86 = EDGE_LOOP ( 'NONE', ( #233 ) ) ;
#87 = FACE_OUTER_BOUND ( 'NONE', #80, .T. ) ;
#88 = EDGE_LOOP ( 'NONE', ( #170 ) ) ;
#89 = PERSON_AND_ORGANIZATION ( #229, #83 ) ;
#90 = AXIS2_PLACEMENT_3D ( 'NONE', #59, #132, #175 ) ;
#91 = ADVANCED_FACE ( 'NONE', ( #87, #235 ), #43, .T. ) ;
#92 = FACE_BOUND ( 'NONE', #242, .T. ) ;
#93 = DIRECTION ( 'NONE',  ( 0.0000000000000000000, 1.000000000000000000, 0.0000000000000000000 ) ) ;
#94 = SECURITY_CLASSIFICATION ( '', '', #237 ) ;
#95 = DIRECTION ( 'NONE',  ( -3.491481338843133355E-15, -5.814082125279119117E-16, -1.000000000000000000 ) ) ;
#96 = DATE_AND_TIME ( #166, #39 ) ;
#97 = FACE_OUTER_BOUND ( 'NONE', #156, .T. ) ;
#98 = VERTEX_POINT ( 'NONE', #5 ) ;
#99 = CARTESIAN_POINT ( 'NONE',  ( 0.0000000000000000000, 0.0000000000000000000, 0.0000000000000000000 ) ) ;
#100 = CC_DESIGN_PERSON_AND_ORGANIZATION_ASSIGNMENT ( #9, #103, ( #130 ) ) ;
#101 = ORIENTED_EDGE ( 'NONE', *, *, #28, .F. ) ;
#102 = DATE_TIME_ROLE ( 'classification_date' ) ;
#103 = PERSON_AND_ORGANIZATION_ROLE ( 'creator' ) ;
#104 = LOCAL_TIME ( 14, 2, 9.000000000000000000, #29 ) ;
#105 = PERSON_AND_ORGANIZATION ( #229, #83 ) ;
#106 = DIRECTION ( 'NONE',  ( -3.491481338843133355E-15, -5.814082125279119117E-16, -1.000000000000000000 ) ) ;
#107 = AXIS2_PLACEMENT_3D ( 'NONE', #54, #168, #49 ) ;
#108 = ORIENTED_EDGE ( 'NONE', *, *, #85, .T. ) ;
#109 = CARTESIAN_POINT ( 'NONE',  ( 0.0000000000000000000, 0.0000000000000000000, 0.0000000000000000000 ) ) ;
#110 = FACE_OUTER_BOUND ( 'NONE', #189, .T. ) ;
#111 = VERTEX_POINT ( 'NONE', #173 ) ;
#112 = VERTEX_POINT ( 'NONE', #194 ) ;
#113 = CLOSED_SHELL ( 'NONE', ( #14, #138, #22, #20, #205 ) ) ;
#114 = COORDINATED_UNIVERSAL_TIME_OFFSET ( 1, 0, .AHEAD. ) ;
#115 = PRODUCT_DEFINITION_FORMATION_WITH_SPECIFIED_SOURCE ( 'ANY', '', #212, .NOT_KNOWN. ) ;
#116 = APPLICATION_PROTOCOL_DEFINITION ( 'international standard', 'config_control_design', 1994, #82 ) ;
#117 = ADVANCED_FACE ( 'NONE', ( #70, #3 ), #193, .T. ) ;
#118 = MECHANICAL_CONTEXT ( 'NONE', #82, 'mechanical' ) ;
#119 = DATE_AND_TIME ( #178, #104 ) ;
#120 = EDGE_LOOP ( 'NONE', ( #122 ) ) ;
#121 = APPROVAL_DATE_TIME ( #139, #240 ) ;
#122 = ORIENTED_EDGE ( 'NONE', *, *, #40, .T. ) ;
#123 = DIRECTION ( 'NONE',  ( 0.0000000000000000000, 1.000000000000000000, 0.0000000000000000000 ) ) ;
#124 = AXIS2_PLACEMENT_3D ( 'NONE', #30, #106, #145 ) ;
#125 = CC_DESIGN_PERSON_AND_ORGANIZATION_ASSIGNMENT ( #105, #11, ( #115 ) ) ;
#126 = PLANE ( 'NONE',  #137 ) ;
#127 = CARTESIAN_POINT ( 'NONE',  ( 2.444036937190193601E-13, -7.347880794884121511E-15, 70.00000000000000000 ) ) ;
#128 = AXIS2_PLACEMENT_3D ( 'NONE', #150, #33, #93 ) ;
#129 = CIRCLE ( 'NONE', #72, 1.499999999999997558 ) ;
#130 = PRODUCT_DEFINITION ( 'UNKNOWN', '', #115, #69 ) ;
#131 = VERTEX_POINT ( 'NONE', #210 ) ;
#132 = DIRECTION ( 'NONE',  ( -3.491481338843133355E-15, 1.049697256412017316E-16, -1.000000000000000000 ) ) ;
#133 = APPROVAL ( #31, 'UNSPECIFIED' ) ;
#134 = FACE_BOUND ( 'NONE', #74, .T. ) ;
#135 = PRODUCT_DEFINITION_SHAPE ( 'NONE', 'NONE',  #130 ) ;
#136 = APPLICATION_CONTEXT ( 'configuration controlled 3d designs of mechanical parts and assemblies' ) ;
#137 = AXIS2_PLACEMENT_3D ( 'NONE', #36, #12, #206 ) ;
#138 = ADVANCED_FACE ( 'NONE', ( #134, #97 ), #57, .T. ) ;
#139 = DATE_AND_TIME ( #234, #190 ) ;
#140 = PERSON_AND_ORGANIZATION ( #229, #83 ) ;
#141 = DIRECTION ( 'NONE',  ( 0.0000000000000000000, 1.000000000000000000, 0.0000000000000000000 ) ) ;
#142 = AXIS2_PLACEMENT_3D ( 'NONE', #127, #209, #141 ) ;
#143 = VERTEX_POINT ( 'NONE', #66 ) ;
#144 = EDGE_CURVE ( 'NONE', #23, #23, #163, .T. ) ;
#145 = DIRECTION ( 'NONE',  ( -3.228379162933042480E-30, 1.000000000000000000, -9.087079496997452441E-16 ) ) ;
#146 = DIRECTION ( 'NONE',  ( -3.491481338843133355E-15, -5.814082125279119117E-16, -1.000000000000000000 ) ) ;
#147 = APPROVAL_PERSON_ORGANIZATION ( #140, #230, #46 ) ;
#148 = EDGE_LOOP ( 'NONE', ( #226 ) ) ;
#149 = PLANE ( 'NONE',  #62 ) ;
#150 = CARTESIAN_POINT ( 'NONE',  ( 3.622105677210322299E-14, -1.088968842394517498E-15, 10.37412297443488463 ) ) ;
#151 = AXIS2_PLACEMENT_3D ( 'NONE', #38, #171, #174 ) ;
#152 = CIRCLE ( 'NONE', #128, 1.908999999999999808 ) ;
#153 = DIRECTION ( 'NONE',  ( -3.491481338843133355E-15, 1.049697256412017316E-16, -1.000000000000000000 ) ) ;
#154 = DIRECTION ( 'NONE',  ( 0.0000000000000000000, 1.000000000000000000, 0.0000000000000000000 ) ) ;
#155 = CC_DESIGN_DATE_AND_TIME_ASSIGNMENT ( #21, #102, ( #94 ) ) ;
#156 = EDGE_LOOP ( 'NONE', ( #27 ) ) ;
#157 = DIRECTION ( 'NONE',  ( 0.0000000000000000000, 0.0000000000000000000, 1.000000000000000000 ) ) ;
#158 = DATE_AND_TIME ( #214, #221 ) ;
#159 =( NAMED_UNIT ( * ) PLANE_ANGLE_UNIT ( ) SI_UNIT ( $, .RADIAN. ) );
#160 = COORDINATED_UNIVERSAL_TIME_OFFSET ( 1, 0, .AHEAD. ) ;
#161 = CIRCLE ( 'NONE', #142, 1.199999999999997513 ) ;
#162 = PERSON_AND_ORGANIZATION_ROLE ( 'design_supplier' ) ;
#163 = CIRCLE ( 'NONE', #195, 1.499999999999992673 ) ;
#164 = UNCERTAINTY_MEASURE_WITH_UNIT (LENGTH_MEASURE( 1.000000000000000082E-05 ), #213, 'distance_accuracy_value', 'NONE');
#165 = DIRECTION ( 'NONE',  ( 3.491481338843133355E-15, 5.814082125279119117E-16, 1.000000000000000000 ) ) ;
#166 = CALENDAR_DATE ( 2021, 26, 11 ) ;
#167 = APPROVAL_PERSON_ORGANIZATION ( #220, #133, #172 ) ;
#168 = DIRECTION ( 'NONE',  ( -3.491481338843133355E-15, 1.049697256412017316E-16, -1.000000000000000000 ) ) ;
#169 = CC_DESIGN_PERSON_AND_ORGANIZATION_ASSIGNMENT ( #67, #44, ( #94 ) ) ;
#170 = ORIENTED_EDGE ( 'NONE', *, *, #144, .F. ) ;
#171 = DIRECTION ( 'NONE',  ( -3.491481338843133355E-15, -5.814082125279119117E-16, -1.000000000000000000 ) ) ;
#172 = APPROVAL_ROLE ( '' ) ;
#173 = CARTESIAN_POINT ( 'NONE',  ( -1.892735826383154569E-31, 1.764662432702592598, -5.421010862427522170E-17 ) ) ;
#174 = DIRECTION ( 'NONE',  ( -2.017736976833145332E-30, 1.000000000000000000, -5.679424685623390273E-16 ) ) ;
#175 = DIRECTION ( 'NONE',  ( 3.664998382197393967E-31, 1.000000000000000000, 1.049697256412017316E-16 ) ) ;
#176 = CLOSED_SHELL ( 'NONE', ( #37, #117, #91, #243 ) ) ;
#177 = ORIENTED_EDGE ( 'NONE', *, *, #85, .F. ) ;
#178 = CALENDAR_DATE ( 2021, 26, 11 ) ;
#179 = CIRCLE ( 'NONE', #124, 1.908999999999992703 ) ;
#180 = LOCAL_TIME ( 14, 2, 9.000000000000000000, #114 ) ;
#181 = CARTESIAN_POINT ( 'NONE',  ( 2.444036937190193601E-13, 1.199999999999990186, 70.00000000000000000 ) ) ;
#182 = CC_DESIGN_PERSON_AND_ORGANIZATION_ASSIGNMENT ( #89, #162, ( #115 ) ) ;
#183 = APPROVAL_DATE_TIME ( #119, #230 ) ;
#184 = EDGE_LOOP ( 'NONE', ( #207 ) ) ;
#185 = DIRECTION ( 'NONE',  ( 2.029975924291346787E-30, -1.000000000000000000, 5.814082125279120103E-16 ) ) ;
#186 = AXIS2_PLACEMENT_3D ( 'NONE', #18, #153, #42 ) ;
#187 = APPROVAL_PERSON_ORGANIZATION ( #227, #240, #64 ) ;
#188 = COORDINATED_UNIVERSAL_TIME_OFFSET ( 1, 0, .AHEAD. ) ;
#189 = EDGE_LOOP ( 'NONE', ( #25 ) ) ;
#190 = LOCAL_TIME ( 14, 2, 9.000000000000000000, #160 ) ;
#191 = DIRECTION ( 'NONE',  ( 3.491481338843133355E-15, 5.814082125279119117E-16, 1.000000000000000000 ) ) ;
#192 = DIRECTION ( 'NONE',  ( -2.029975924291346787E-30, 1.000000000000000000, -5.814082125279120103E-16 ) ) ;
#193 = CYLINDRICAL_SURFACE ( 'NONE', #239, 1.908999999999995811 ) ;
#194 = CARTESIAN_POINT ( 'NONE',  ( 3.622105677210322299E-14, 1.908999999999998698, 10.37412297443488463 ) ) ;
#195 = AXIS2_PLACEMENT_3D ( 'NONE', #6, #60, #154 ) ;
#196 = CIRCLE ( 'NONE', #151, 1.908999999999998698 ) ;
#197 = CALENDAR_DATE ( 2021, 26, 11 ) ;
#198 = APPROVAL_STATUS ( 'not_yet_approved' ) ;
#199 = DIRECTION ( 'NONE',  ( 1.000000000000000000, 0.0000000000000000000, 0.0000000000000000000 ) ) ;
#200 = EDGE_CURVE ( 'NONE', #143, #143, #196, .T. ) ;
#201 = ORIENTED_EDGE ( 'NONE', *, *, #200, .T. ) ;
#202 = EDGE_LOOP ( 'NONE', ( #177 ) ) ;
#203 = PERSON_AND_ORGANIZATION ( #229, #83 ) ;
#204 = DIRECTION ( 'NONE',  ( 2.029975924291346787E-30, -1.000000000000000000, 5.814082125279119117E-16 ) ) ;
#205 = ADVANCED_FACE ( 'NONE', ( #77 ), #224, .T. ) ;
#206 = DIRECTION ( 'NONE',  ( -3.664998382197393967E-31, -1.000000000000000000, -1.049697256412017316E-16 ) ) ;
#207 = ORIENTED_EDGE ( 'NONE', *, *, #40, .F. ) ;
#208 = CONICAL_SURFACE ( 'NONE', #107, 1.908999999999999808, 0.5235987755982928205 ) ;
#209 = DIRECTION ( 'NONE',  ( -3.491481338843133355E-15, 1.049697256412017316E-16, -1.000000000000000000 ) ) ;
#210 = CARTESIAN_POINT ( 'NONE',  ( 2.433562493173664138E-13, 1.499999999999990230, 69.70000000000001705 ) ) ;
#211 = PLANE ( 'NONE',  #45 ) ;
#212 = PRODUCT ( '321285', '321285', '', ( #118 ) ) ;
#213 =( LENGTH_UNIT ( ) NAMED_UNIT ( * ) SI_UNIT ( .MILLI., .METRE. ) );
#214 = CALENDAR_DATE ( 2021, 26, 11 ) ;
#215 = ADVANCED_BREP_SHAPE_REPRESENTATION ( '321285', ( #2, #79, #1 ), #75 ) ;
#216 = CARTESIAN_POINT ( 'NONE',  ( 2.433562493173664138E-13, -7.316389877191761450E-15, 69.70000000000001705 ) ) ;
#217 = DIRECTION ( 'NONE',  ( -2.029975924291346787E-30, 1.000000000000000000, -5.814082125279120103E-16 ) ) ;
#218 = CC_DESIGN_DATE_AND_TIME_ASSIGNMENT ( #158, #231, ( #130 ) ) ;
#219 = FACE_OUTER_BOUND ( 'NONE', #55, .T. ) ;
#220 = PERSON_AND_ORGANIZATION ( #229, #83 ) ;
#221 = LOCAL_TIME ( 14, 2, 9.000000000000000000, #8 ) ;
#222 = CC_DESIGN_PERSON_AND_ORGANIZATION_ASSIGNMENT ( #203, #84, ( #212 ) ) ;
#223 = DIRECTION ( 'NONE',  ( -3.491481338843133355E-15, -5.814082125279119117E-16, -1.000000000000000000 ) ) ;
#224 = PLANE ( 'NONE',  #90 ) ;
#225 = CC_DESIGN_SECURITY_CLASSIFICATION ( #94, ( #115 ) ) ;
#226 = ORIENTED_EDGE ( 'NONE', *, *, #78, .F. ) ;
#227 = PERSON_AND_ORGANIZATION ( #229, #83 ) ;
#228 = AXIS2_PLACEMENT_3D ( 'NONE', #109, #241, #238 ) ;
#229 = PERSON ( 'UNSPECIFIED', 'UNSPECIFIED', 'UNSPECIFIED', ('UNSPECIFIED'), ('UNSPECIFIED'), ('UNSPECIFIED') ) ;
#230 = APPROVAL ( #198, 'UNSPECIFIED' ) ;
#231 = DATE_TIME_ROLE ( 'creation_date' ) ;
#232 = APPLICATION_PROTOCOL_DEFINITION ( 'international standard', 'config_control_design', 1994, #136 ) ;
#233 = ORIENTED_EDGE ( 'NONE', *, *, #78, .T. ) ;
#234 = CALENDAR_DATE ( 2021, 26, 11 ) ;
#235 = FACE_BOUND ( 'NONE', #148, .T. ) ;
#236 = CC_DESIGN_APPROVAL ( #230, ( #130 ) ) ;
#237 = SECURITY_CLASSIFICATION_LEVEL ( 'unclassified' ) ;
#238 = DIRECTION ( 'NONE',  ( 3.664998382197393967E-31, 1.000000000000000000, 1.049697256412017316E-16 ) ) ;
#239 = AXIS2_PLACEMENT_3D ( 'NONE', #99, #223, #192 ) ;
#240 = APPROVAL ( #47, 'UNSPECIFIED' ) ;
#241 = DIRECTION ( 'NONE',  ( -3.491481338843133355E-15, 1.049697256412017316E-16, -1.000000000000000000 ) ) ;
#242 = EDGE_LOOP ( 'NONE', ( #17 ) ) ;
#243 = ADVANCED_FACE ( 'NONE', ( #58 ), #211, .T. ) ;
ENDSEC;
END-ISO-10303-21;
